Search tabs:
Browse artists: 0-9 | A | B | C | D | E | F | G | H | I | J | K | L | M | N | O | P | Q | R | S | T | U | V | W | X | Y | Z
/ / / bass tab

Morbid Angel
God of Our Own Divinity
Heretic
Copyright 2003 Earache

Author: cw4119
E-mail: cwhitelaw4119@hotmail.com

Tuning: Eb (1/2 step down)

/ and \ = Slide
. = Stacatto/Palm Mute
H = Hold Note
G = Grace note

Intro: (2x)

Gb|----------------------------------------------------------------|
Db|----------------------------------------------------------------|
Ab|----------------Guitar 1-----------------------Guitar 1---------|
Eb|-0-3-5---5--------------------0-3-5---5-------------------------|

Verse A: (4x)

|----------------------------------------------------------------|
|----------------------------------------------------------------|
|----------------------------------------------------------------|
|-0-3-5---5---3-5-6---5-3-0-3-5---5---3/5-3-2-3-2----------------|
              . .     . .                 . . . .
Verse B: (2x)

|-------------R---------------------------------------------------|
|-------------E---------------------------------------------------|
|-------------S---------------------------------------------------|
|-0-3-5---5---T----6---5-3-0-3-5---5---3/5-3-2-3-2----------------|
                       . .                 . . . .

Verse C: (1x)

|----------------------------------------------------------------|
|----------------------------------------------------------------|
|----------------------------------------------------------------|
|-0-3-5-5-5-5-3-5-6-6-5-3-0-3-5-5-5-5-3/5-3-2-3-2----------------|
  . . . . . . . . . . . . . . . . . .     . . . .

|----------------------------------------------------------------|
|----------------------------------------------------------------|
|----------------------------------------------------------------|
|-0-3-5-5-5-5-3-5-6-6-5-3-0-3-5-5-5-5-3/5-3-2-3-2----------------|
  . . . . . . . . . . . . . . . . . .     . . . .

|----------------------------------------------------------------|
|----------------------------------------------------------------|
|----------------------------------------------------------------|
|-0-3-5-5-5-5-3-5-6-6-5-3-0-3-5-5-5-5-3/5-3-2-3-2----------------|
  . . . . . . . . . . . . . . . . . .     . . . .

|----------------------------------------------------------------|
|----------------------------------------------------------------|
|----------------------------------------------------------------|
|-0-3-5-5-5-5-3-5-6-6-5-3-0-3-5-5-5-5-3/5-3-2-3-2----------------|
  . . . . . . . . . . . . . . . . . .     . . . H

Chorus A: (2x)

|----------------------------------------------------------------|
|----------------------------------------------------------------|
|----------------------------------------------------------------|
|-2--2--2--55556666666633335555--2--2--2--5555666666665----------|
                                                      H

Chorus B: (2x)

|------------------------------------------------------------------|
|------------------------------------------------------------------|
|-----------------------------3333---------------------------------|
|-2222222222222222666655556666----00000000000055556666555566665555-|

|------------------------------------------------------------------|
|------------------------------------------------------------------|
|-----------------------------3333---------------------------------|
|-2222222222222222666655556666----0000000000005555666655556--------|
                                                          H

Verse 2: (1x)

|----------------------------------------------------------------|
|----------------------------------------------------------------|
|----------------------------------------------------------------|
|-0-0-2-023-235-53\----5/6------------0---2-023-235-53\-----7/8--|
                       G H                                  G H


|----------------------------------------------------------------|
|----------------------------------------------------------------|
|----------------------------------------------------------------|
|-0---2-023-235-53\----5/6------------0---2-023-235-53\-----7/8--|
                       G H                                  G H

Interlude A: (1x)

|----------------------------------------------------------------|
|----------------------------------------------------------------|
|-------------1-----------------1--------------------------------|
|--------2----------------2----------------2---------------------|

Interlude B: (1x)

|----------------------------------------------------------------|
|----------------------------------------------------------------|
|----------------------------------------------------------------|
|-6--5--4-5\4/5--4/5--4------------------------------------------|
                      H

Interlude C: (1x)
Ok, REALLY confused on this part.  This is what the guitars play
for the most part.  I don't hear any specific line, so im pretty
sure this is what Steve plays.

|-------------------------------2-----6-----6--------------------|
|-------------2-----2-----444444-44444-77777-77777---------------|
|-------0------00000-00000---------------------------------------|
|-222222-22222---------------------------------------------------|

Ending: (1x)

|----------------------------------------------------------------|
|----------------------------------------------------------------|
|-------------1-----------------1--------------------------------|
|--------2----------------2--------------------------------------|
                                H

Repeat riffs as necessary.  Have fun.


albums
tabs

 

1