Search tabs:
Browse artists: 0-9 | A | B | C | D | E | F | G | H | I | J | K | L | M | N | O | P | Q | R | S | T | U | V | W | X | Y | Z
/ / / bass tab

Morbid Angel
Stricken Arise
Heretic
Copyright 2003 Earache records

Author: cw4119

Tuning: Bb

Note:  I think Steve uses a 4-string for everything but i dunno,
Ive only seen pictures of him with a 4-string, but imo a 5-string
is much better.  You can play it either way.

Made this as accurate as i could, but these lower riffs are hard to get right.
Also, didnt really know what to name the riffs, so just numbered most of em.
CORRECTIONS PLEASE if you have any e-mail me at cwhitelaw4119@hotmail.com

Intro: 4x
Gb|-----------------------------------------------------------------|
Db|-----------------------------------------------------------------|
Ab|-------------44--------------------------------------------------|
Eb|-222222223322--33222233556655655---------------------------------|
Bb|-----------------------------------------------------------------|

Verse: 2x

Gb|-------------------------------------------------------------------|
Db|-------------------------------------------------------------------|
Ab|-------44-------44------44--------------44------44-----------------|
Eb|-222222--2222222--222222----------222222--222222--2222335566556655-|
Bb|--------------------------3-2-3-2----------------------------------|

Chorus: 2x
Gb|------------------------------------------------------------------|
Db|------------------------------------------------------------------|
Ab|------------------------------------------------------------------|
Eb|------------------------------------------------------------------|
Bb|-7-5-7-4-622----7-5-7-4-622-----7-5-7-4-622-2-----7-5-7-4-3-0-2-3-|
                                                             ^End 2nd
                               time with this when this riff is played
                               for the second/third time in the song

Repeat intro (2x only)
Repeat verse (normal)
Repeat Chorus (normal)


Riff 4 (7x)                                On seventh time end with this
Gb|---------------------------------------|--------------------------|
Db|---------------------------------------|--------------------------|
Ab|---------------------------------------|--------------------------|
Eb|----------33---------33----------33----|--------------------------|
Bb|-2023--------3----------3-----------3--|--023---------------------|


Riff 5 (2x)
Gb|-----------------------------------------------------------------|
Db|-----------------------------------------------------------------|
Ab|-----------------------------------------------------------------|
Eb|-----------------------------------------------------------------|
Bb|-2---------2----------3-----------6----5----6--------------------|


Riff 6 (1x)
                       Repeat 4x
Gb|---------------|------------------|------------------------------|
Db|---------------|------------------|------------------------------|
Ab|---------------|-2222222222-------|------------------------------|
Eb|---------------|------------Drums-|------------------------------|
Bb|-2--3--5--6--7-|------------------|------------------------------|


Riff 7 (5x)
Gb|-----------------------------------------------------------------|
Db|-----------------------------------------------------------------|
Ab|-----------------------------------------------------------------|
Eb|-7----------7----------------7-------7------------5--4/5---------|
Bb|-----6---3---6--2-----3--2------6--3--6--2-----------------------|
                                                        ^On 5th time
                                             just hold this note

Riff 8 (1x)

Gb|-----------------------------------------------------------------|
Db|-----------------------------------------------------------------|
Ab|-----------------------------------------------------------------|
Eb|-----------------------------------------------------------------|
Bb|-2---------3---------5----------6--------------------------------|


Repeat Riff 7 (Play as if 5th time and dont repeat)
Repeat Riff 8
Pause W/Drums
Repeat intro (2x only)
Repeat verse (normal)
Repeat Chorus (normal)


albums
tabs

 

1