Search tabs:
Browse artists: 0-9 | A | B | C | D | E | F | G | H | I | J | K | L | M | N | O | P | Q | R | S | T | U | V | W | X | Y | Z
/ Motley Crue / Too Fast for Love (1981) / Public Enemy #1 bass tab

Motley Crue- Public Enemy #1
From \'Too Fast For Love\'
Hip-O/ Motley Records
Music by Nikki Sixx & Lizzie Grey
Tabbed by Dan Reid
Drop-D Tuning- GDAD

This tab fits both the Leathur and Elektra versions of this song


Intro

G|---------------|  x7   G|-------------------------------------------------------|
D|---------------|       D|-------------------------------------------------------|
A|---------------|       A|-------------------------------/12-12-12-12-12-12-12---|
D|-12-12-12-1212-|       D|-12-12-12-12-12-127-7--7-7-7-7----------------------10|

G|---------------------------------|
D|---------------------------------|
A|-------------/12-12--12--12-12---|
D|-7-7--7-7-7-7------------------10|


Verse

G|-----------------------| x3  G|------------------------|------------------------------------|
D|-----------------------|     D|------------------------|------------------------------------|
A|-----------------------|     A|------------------------|------------/12-12-12-12-12-12-12---|          D|12-12-12-12-12-12-12-12|     D|12-12-12-12-12-12-12-10-|7-7--7-7-7-7----------------------10|


G|---------------------------------|
D|---------------------------------|
A|-------------/12-12--12--12-12---|
D|-7-7--7-7-7-7------------------10|


Repeat Verse


Pre-Chorus

G|----------------------------------|-------------------------------------|
D|------------------12----10---9---7|-----------------12----14----15----17|
A|----------------------------------|-------------------------------------|
D|-5--5-5-5-5-5-12-----10----9---7--|-5--5-5-5-5-5-12----14----15----17---|

G|------------------------------------|
D|------------------12----10---9---7--|
A|------------------------------------|
D|-5--5-5-5-5-5--12----10----9---7---5|

G|----------------| x3  G|----------------------|
D|----------------|     D|----------------------|
A|----------------|     A|----------------------|
D|-7-7-7-7-7-7-7-7|     D|/17-17-17-17-17-7-9-10|


Chorus

G|--------------------------------|  x3   G|------------------------------|
D|--------------------------------|       D|------------------------------|
A|--------------------------------|       A|------------------------------|
D|12-12--10--9--9-5-5--3--3--9-10-|       D|-12-12--10--9--9-5-5--3--3-2-0|


Post-Chorus 1

G|-----------------|-----------|------|------------|-----------------|
D|-----------------|-----------|------|------------|-----------------|
A|-----------------|-----------|------|------------|-----------------|
D|-7-7-7-7-7-7-7-7-|7-7-7-7-7-7|-7-7--|-7-7-7-7-7-7|-7-7-7-7-7-7-7-7-|


Interlude

G|------------------------|-------------------------| x2
D|------------------------|----------------10----11-|
A|------------------------|-------------------------|
D|-12-12-12-12-12-12-12-12|-12-12-12-12-10----11----|


G|-------------------------------------|----------------------------------|
D|-------------------------------------|----------------------------------|
A|-------------/12-12-12-12-12-12-12---|--------------/12-12--12--12-12---|
D|-7-7--7-7-7-7----------------------10|--7-7--7-7-7-7------------------10|


Repeat Verse


Repeat Pre-Chorus


Repeat Chorus


Post-Chorus 2

G|-----------------|-----------|------|------------|-------------------------|
D|-----------------|-----------|------|------------|-------------------------|
A|-----------------|-----------|------|------------|-------------------------|
D|-7-7-7-7-7-7-7-7-|7-7-7-7-7-7|-7-7--|-7-7-7-7-7-7|-17-17-17-17-17-17-17-17-|


Under Guitar Solo

G|------------------------|-------------------------| x2
D|------------------------|----------------10----11-|
A|------------------------|-------------------------|
D|-12-12-12-12-12-12-12-12|-12-12-12-12-10----11----|

G|-------------------------------------|----------------------------------|
D|-------------------------------------|----------------------------------|
A|-------------/12-12-12-12-12-12-12---|--------------/12-12--12--12-12---|
D|-7-7--7-7-7-7----------------------10|--7-7--7-7-7-7------------------10|

G|------------------------|-------------------------|
D|------------------------|----------------10----11-|
A|------------------------|-------------------------|
D|-12-12-12-12-12-12-12-12|-12-12-12-12-10----11----|

G|------------------------|------------------------|
D|------------------------|------------------------|
A|------------------------|------------------------|
D|-12-12-12-12-12-12-12-12|-12-12-12-12-12-12-12-12|

G|-------------------------------------|----------------------------------|
D|-------------------------------------|----------------------------------|
A|-------------/12-12-12-12-12-12-12---|--------------/12-12--12--12-12---|
D|-7-7--7-7-7-7----------------------10|--7-7--7-7-7-7------------------10|


Repeat Pre-Chorus


Chorus Interlude

G|------|--------------|------------------|------------------|-----------------|
D|------|--------------|------------------|------------------|-----------------|
A|------|--------------|------------------|------------------|-----------------|
D|-0230-|------03-5-0--|------003-5-0--0--|------003-5-0--0--|----------/9-10--|


Chorus Variation

G|---------------------------------| x4  G|--------------------------------------| x4
D|---------------------------------|     D|--------------------------------------|
A|---------------------------------|     A|--------------------------------------|
D|-12-12--10--9--9-5-5--3--3--9-10-|     D|-12-12--10--9-9-9/17-17-15-15-14-9-10-|

G|--------------------------------|
D|--------------------------------|
A|--------------------------------|
D|-12-12--10--9--9-5-5--3--3--2-0-|


Repeat Post-Chorus 1


Ending

G|---------------| x4
D|---------------|
A|---------------|
D|-12-12-12-1212-|

Please rate
Thanks


Motley Crue albums
2000 New Tattoo
1997 Generation Swine
1994 Mötley Crüe
1991 Decade of Decadence
1989 Dr. Feelgood
1987 Girls, Girls, Girls
1985 Theatre of Pain
1983 Shout at the Devil
1981 Too Fast for Love
Too Fast for Love tabs
01Live Wire tabbass tab
02Come on and Dance tabbass tab
03Public Enemy #1 tabbass tab
04Merry-Go-Round tabbass tab
05Take Me to the Top tabbass tab
06Piece of Your Action tabbass tab
07Starry Eyes tabbass tab
08Too Fast for Love tabbass tab
09On With the Show tabbass tab
10Toast of the Town tabbass tab
11Tonight (We Need a Lover) tabbass tab
12Too Fast for Love tabbass tab
13Stick to Your Guns tabbass tab

 

1