Search tabs:
Browse artists: 0-9 | A | B | C | D | E | F | G | H | I | J | K | L | M | N | O | P | Q | R | S | T | U | V | W | X | Y | Z
/ / / bass tab

Tune down to C# F# B E


|---------------------------------------------------------------------
|---------------------------------------------------------------------
|---------------------------------------------------------------------
|-3---2---0-------0---0-3---2---0-------0-----------------------------


|--------------------22----------------------------23-----------------
|-----------20--------------------------21----------------------------
|-22---19---------------------22---19---------------------------------
|---------------------------------------------------------------------

|--------------------23----------------------------22-----------------
|-----------21--------------------------20----------------------------
|-22---19---------------------22---19---------------------------------
|---------------------------------------------------------------------


albums
tabs

 

1