Search tabs:
Browse artists: 0-9 | A | B | C | D | E | F | G | H | I | J | K | L | M | N | O | P | Q | R | S | T | U | V | W | X | Y | Z
/ / / bass tab

tune down to C#-F#


----------------
----------------
----------------
-6-5---1-1------


--------------------------------
--------------------------------
-5---8---8---8------------------
-----------------6-5---1-1------


-----------
-----------
-----------
-0-0-0-0-0-


-------------------------
-------------3-3-3-------
-------------------3-3-5-
-0-0-0-1-1-1-------------


---------------------------------------
---------------------------------------
-5---5--------5-5--5-------------------
-----------------------3-2-3/5-5-5-5-6-


--------------------------------------------------------------------------
--------------------------------------------------------------------------
-5-0-0-0-0-5-0-0-0-0-5\\4-4-4/6-6-6--6-5-0-0-0-0-5-0-0-0-0-----------------
----------------------------------------------------------3-2-3/5-5-5-5-6-


-------------------------------------------------
-------------------------------------------------
-------------------------------------------7-----
-5-5-5-5-5-5-5-5-5-5-5-5-8-8-8-7-7-7-8-8-8---8-7-

-------------------------------------------------
-------------------------------------------------
-------------------------------------------7-----
-4-4-4-4-4-4-4-4-4-4-4-4-8-8-8-7-7-7-8-8-8---8-7-


albums
tabs

 

1