Search tabs:
Browse artists: 0-9 | A | B | C | D | E | F | G | H | I | J | K | L | M | N | O | P | Q | R | S | T | U | V | W | X | Y | Z
/ / / bass tab

tune down

E   -----------------------------15--17-17-18-17-15-17-13--
B   --13-15-15-16-15--13--15-15-(15)------------------(13)-
F#  -(13)--------------------------------------------------
C#  -------------------------------------------------------

E  -------------------------
B  -------------------------
F# -------------------0-----
C# -2--3-0-0-0--2--3--------


E  --------------------------------------------------------
B  --------------------------------------------------------
F# ---------------------0--2-2----------------2-0----0-----
C# -7--7--3-2-3-2-2-2-3--------3-2-3-2--2--2-------3----2--


E  ---------------------------------------
B  -------6-5-----6-5-----6-5-------------
F# -----------5-4-----4-3-----3-2---------
C# -5-4-3--------------------------0-5-3--


E  -------------------------------------------------------------------------
B  -------------------------------------------------------------------------
F# -------6-6-6-6-6-6-6-6---------------------------------------------------
C# -0-5-3-----------------3-3-3-3-3-3-3-3-6-6-6-6-6-6-6-6-7-7-7-7-7-7-7-7---


E  --------4-3--------
B  ------------4-5----
F# ----6-7------------
C# -0-----------------

E  -------------------------------------------
B  ----------4--5--4--------------4--5--4-----
F# ----5--3-----------7-----5--3-----------7--
C# -0-----------------0--0-----------------0--



E  --------------------------------------------------
B  --------------------------------------------------
F# -------------5--3--5-\\8--7--5--3--5-\\8--7---------
C# -2--3-0-0-0--------------------------------5------


E  ---------------------------------------------------------------------------
B  ---------------------------------------------------------------------------
F# ---------------------------------------------------------------------------
C# -5-8-12---0-0-0-0-0-0-0-0-3-3-3-3-3-3-3-3-6-6-6-6-6-6-6-6-7-7-7-7-7-7-7-7--


E  --------------------------------------------------
B  -------6-5-----6-5-----6-5-----6-5----------------
F# -----------5-4-----4-3-----3-2--------------------
C# -0-5-3-----------------------------2--3-0-0-0-----


albums
tabs

 

1