Search tabs:
Browse artists: 0-9 | A | B | C | D | E | F | G | H | I | J | K | L | M | N | O | P | Q | R | S | T | U | V | W | X | Y | Z
/ / / bass tab

Nine Inch Nails
The Hand That Feeds
With Teeth (2005)

VERSE:
|-----------------|-----------------|-----------------|-----------------|
|-----------------|-----------------|-----------------|-----------------|
|-----------------|-----------------|-----------------|-----------------|
|-----------------|-----------------|-----------------|-----------------|
                                                        you're keeping in step

|-----------------|-----------------|-----------------|-----------------|
|-----------------|-----------------|-----------------|-----------------|
|-----------------|-----------------|-----------------|-----------------|
|-5-5-3-5---8---3-|-5-5-3-5---8---3-|-5-5-3-5---8---3-|-5-5-3-5---8---3-|
  in the line. got your chin held high and you feel just fine

|-----------------|-----------------|-----------------|-----------------|
|-----------------|-----------------|-----------------|-----------------|
|-----------------|-----------------|-----------------|-----------------|
|-5-5-3-5---8---3-|-5-5-3-5---8---3-|-5-5-3-5---8---3-|-5-5-3-5---8-----|
  'cause you do what you're told. but inside your heart it is black and it's hollow and it's cold.


CHORUS:
|-----------------|-----------------|-----------------|-----------------|
|-----------------|-----------------|-----------------|-----------------|
|-----------------|-----------------|-5-5-5-5-5-5-5-5-|-5-5-5-5-5-5-5-5-|
|-1-1-1-1-1-1-1-1-|-1-1-1-1-1-1-1-1-|-----------------|-----------------|
  just how deep do you believe? will you bite the hand that feeds?

|-----------------|-----------------|-----------------|-----------------|
|-----------------|-----------------|-----------------|-----------------|
|-----------------|-----------------|-----------------|-----------------|
|-5-5-3-5---8---3-|-5-5-3-5---8---3-|-5-5-3-5---8---3-|-5-5-3-5---8-----|
  will you chew until it bleeds? can you get up off your knees?

|-----------------|-----------------|-----------------|-----------------|
|-----------------|-----------------|-----------------|-----------------|
|-----------------|-----------------|-----------------|-----------------|
|-1-1-1-1-1-1-1-1-|-1-1-1-1-1-1-1-1-|-2-2-2-2-2-2-2-2-|-3-3-3-3-3-3-3-3-|
  are you brave enough to see? do you wanna change it?

|-----------------|-----------------|-----------------|-----------------|
|-----------------|-----------------|-----------------|-----------------|
|-----------------|-----------------|-----------------|-----------------|
|-5-5-3-5---8---3-|-5-5-3-5---8---3-|-5-5-3-5---8---3-|-5-5-3-5---8---3-|
                                                        what if this whole

VERSE:
|-----------------|-----------------|-----------------|-----------------|
|-----------------|-----------------|-----------------|-----------------|
|-----------------|-----------------|-----------------|-----------------|
|-5-5-3-5---8---3-|-5-5-3-5---8---3-|-5-5-3-5---8---3-|-5-5-3-5---8---3-|
  crusade's a charade? and behind it all there's a price to be paid

|-----------------|-----------------|-----------------|-----------------|
|-----------------|-----------------|-----------------|-----------------|
|-----------------|-----------------|-----------------|-----------------|
|-5-5-3-5---8---3-|-5-5-3-5---8---3-|-5-5-3-5---8---3-|-5-5-3-5---8-----|
  for the blood which we dine. justified in the name of the holy and the divine.


CHORUS:
|-----------------|-----------------|-----------------|-----------------|
|-----------------|-----------------|-----------------|-----------------|
|-----------------|-----------------|-5-5-5-5-5-5-5-5-|-5-5-5-5-5-5-5-5-|
|-1-1-1-1-1-1-1-1-|-1-1-1-1-1-1-1-1-|-----------------|-----------------|
  just how deep do you believe? will you bite the hand that feeds?

|-----------------|-----------------|-----------------|-----------------|
|-----------------|-----------------|-----------------|-----------------|
|-----------------|-----------------|-----------------|-----------------|
|-5-5-3-5---8---3-|-5-5-3-5---8---3-|-5-5-3-5---8---3-|-5-5-3-5---8-----|
  will you chew until it bleeds? can you get up off your knees?

|-----------------|-----------------|-----------------|-----------------|
|-----------------|-----------------|-----------------|-----------------|
|-----------------|-----------------|-----------------|-----------------|
|-1-1-1-1-1-1-1-1-|-1-1-1-1-1-1-1-1-|-2-2-2-2-2-2-2-2-|-3-3-3-3-3-3-3-3-|
  are you brave enough to see? do you wanna change it?


SOLO:
|-----------------|-----------------|-----------------|-----------------|
|-----------------|-----------------|-----------------|-----------------|
|-----------------|-----------------|-----------------|-----------------|
|-----------------|-----------------|-----------------|-----------------|


|-----------------|-----------------|-----------------|-----------------|
|-----------------|-----------------|-----------------|-----------------|
|-----------------|-----------------|-----------------|-----------------|
|-----------------|-----------------|-----------------|-----------------|

|-----------------|-----------------|-----------------|-----------------|
|-----------------|-----------------|-----------------|-----------------|
|-----------------|-----------------|-----------------|-----------------|
|-----------------|-----------------|-----------------|-----------------|
  so na´ve, i keep holding on to what I want to believe.

|-----------------|-----------------|-----------------|-----------------|
|-----------------|-----------------|-----------------|-----------------|
|-----------------|-----------------|-----------------|-----------------|
|-----------------|-----------------|-----------------|-----------------|
  i can see but i keep holding on and on and on and on.


CHORUS:
|-----------------|-----------------|-----------------|-----------------|
|-----------------|-----------------|-----------------|-----------------|
|-----------------|-----------------|-5-5-5-5-5-5-5-5-|-5-5-5-5-5-5-5-5-|
|-1-1-1-1-1-1-1-1-|-1-1-1-1-1-1-1-1-|-----------------|-----------------|

|-----------------|-----------------|-----------------|-----------------|
|-----------------|-----------------|-----------------|-----------------|
|-----------------|-----------------|-----------------|-----------------|
|-5-5-3-5---8---3-|-5-5-3-5---8---3-|-5-5-3-5---8---3-|-5-5-3-5---8-----|

|-----------------|-----------------|-----------------|-----------------|
|-----------------|-----------------|-----------------|-----------------|
|-----------------|-----------------|-----------------|-----------------|
|-1-1-1-1-1-1-1-1-|-1-1-1-1-1-1-1-1-|-2-2-2-2-2-2-2-2-|-3-3-3-3-3-3-3-3-|


OUTRO:
|-----------------|-----------------|-----------------|-----------------|
|-----------------|-----------------|-----------------|-----------------|
|-----------------|-----------------|-----------------|-----------------|
|-5-5-3-5---8---3-|-5-5-3-5---8---3-|-5-5-3-5---8---3-|-5-5-3-5---8---3-|
  will you bite the hand that feeds you? will you stay down on your knees?

|-----------------|-----------------|-----------------|-----------------|
|-----------------|-----------------|-----------------|-----------------|
|-----------------|-----------------|-----------------|-----------------|
|-5-5-3-5---8---3-|-5-5-3-5---8---3-|-5-5-3-5---8---3-|-5-5-3-5---8---3-|
  will you bite the hand that feeds you? will you stay down on your knees?

|-----------------|-----------------|-----------------|-----------------|
|-----------------|-----------------|-----------------|-----------------|
|-----------------|-----------------|-----------------|-----------------|
|-5-5-3-5---8---3-|-5-5-3-5---8---3-|-5-5-3-5---8---3-|-5-5-3-5---8---3-|
  will you bite the hand that feeds you? will you stay down on your knees?

|-----------------|-----------------|-----------------|-----------------|
|-----------------|-----------------|-----------------|-----------------|
|-----------------|-----------------|-----------------|-----------------|
|-5-5-3-5---8---3-|-5-5-3-5---8---3-|-5-5-3-5---8---3-|-5-5-3-5---8---3-|
  will you bite the hand that feeds you? will you stay down on your knees?

|-----------------|-----------------|-----------------|-----------------|
|-----------------|-----------------|-----------------|-----------------|
|-----------------|-----------------|-----------------|-----------------|
|-5-5-3-5---8---3-|-5-5-3-5---8---3-|-5-5-3-5---8---3-|-5-5-3-5---8---3-|
  will you bite the hand that feeds you? will you stay down on your knees?

|-----------------|-----------------|-----------------|-----------------|
|-----------------|-----------------|-----------------|-----------------|
|-----------------|-----------------|-----------------|-----------------|
|-5-5-3-5---8---3-|-5-5-3-5---8---3-|-5-5-3-5---8---3-|-5-5-3-5---8---3-|
  will you bite the hand that feeds you? will you stay down on your knees?

|-----------------|-----------------|-----------------|-----------------|
|-----------------|-----------------|-----------------|-----------------|
|-----------------|-----------------|-----------------|-----------------|
|-5-5-3-5---8---3-|-5-5-3-5---8---3-|-5-5-3-5---8---3-|-5-5-3-5---8---3-|
  will you bite the hand that feeds you? will you stay down on your knees?

|-----------------|-----------------|-----------------|-----------------|
|-----------------|-----------------|-----------------|-----------------|
|-----------------|-----------------|-----------------|-----------------|
|-5-5-3-5---8---3-|-5-5-3-5---8---3-|-5-5-3-5---8---3-|-5-5-3-5---8-----|
  will you bite the hand that feeds you? will you stay down on your knees?


albums
tabs

 

1