Search tabs:
Browse artists: 0-9 | A | B | C | D | E | F | G | H | I | J | K | L | M | N | O | P | Q | R | S | T | U | V | W | X | Y | Z
/ NOFX / Heavy Petting Zoo (1996) / What's The Matter With Kids Today? bass tab

Band: NOFX
Song: What's The Matter With Parents Today?
Album: Pump Up The Valuum
Bassist: Fat Mike

Standard Tuning
Note: *=let note ring

Bass comes in at :09
G-----------------------------------------------------
D-----------------------------------------------------
A-3/12-1212121211111111101010109999888855553333-------
E----------------------------------------------1111/5-

At :20 seconds, play this
G-----------------------------------------
D-----------------------------------------
A----------------3333-5555------5555------
E-5555-3333-5555-----------3333------1111-

0:29:
G----------------------------------------------------
D----------------------------------------------------
A-333333333333333--------12121212-10101010-888888888-
E-----------------11111------------------------------

Guitar/Vocal Break

0:46:
G--------------
D--------------
A-3333333/12/3-
E--------------

G--------------------------------
D--------------------------------
A----------------55-33333--------
E-55-33-11-00-11----------111111-

0:59:
G-----------------------------------------
D-----------------------------------------
A----------------3333-5555------5555------
E-5555-3333-5555-----------3333------1111-

G--------------------------------------
D--------------------------------------
A-333333333333333----------------------
E-----------------11111-55555-33333-1*-

Guitar and Vocal break.

1:29:
G--------------------------
D-101010101010101010101010-
A--------------------------
E--------------------------

G-------------------------------------------------------
D-7-7-7-77-6-6-6-66-5-5-5-55-4-4-4-44-3-3-3-33----------
A----------------------------------------------5-5-5-55-
E-------------------------------------------------------

G-------------
D-------------
A-3*-1*-0*----
E----------3*-

G----------------------
D----------------------
A-------------------3*-
E-11111111-33333333----


NOFX albums
2003 War on Errorism
2000 Pump Up the Valuum
1997 So Long And Thanks For All The Shoes
1996 Heavy Petting Zoo
1995 I Heard They Suck Live!!
1994 Punk in Drublic
1993 The Longest Line
1993 White Trash, Two Heebs & A Bean
1991 Ribbed
1989 S & M Airlines
Heavy Petting Zoo tabs
01Hobophobic (Scared Of Bums) tabbass tab
02Philthy Phil Philanthropist tabbass tab
03Freedom Lika Shopping Cart tabbass tab
04Bleeding Heart Disease tabbass tab
05Hot Dog In A Hallway tabbass tab
06Release The Hostages tabbass tab
07Liza tabbass tab
08What's The Matter With Kids Today? tabbass tab
09Love Story tabbass tab
10Black And White, The tabbass tab
11Whatever Didi Wants tabbass tab
12August 8th tabbass tab
13Drop The World tabbass tab

 

1