Search tabs:
Browse artists: 0-9 | A | B | C | D | E | F | G | H | I | J | K | L | M | N | O | P | Q | R | S | T | U | V | W | X | Y | Z
/ / / bass tab

-------------------------------

PUNK GUY   /   NOFX

-------------------------------



tabbed by Carlos Pino (lupimo@ctcreuna.cl)



G]-------------]

D]-------------]

A]-------3-0-]

E]-1-3-------]



G]-------------------]

D]-------------------]

A]-------3----------]

E]-3-1----3-1-5-]


albums
tabs

 

1