Search tabs:
Browse artists: 0-9 | A | B | C | D | E | F | G | H | I | J | K | L | M | N | O | P | Q | R | S | T | U | V | W | X | Y | Z
/ NOFX / Pump Up the Valuum (2000) / Herojuana bass tab

NOFX - Herojuana
Submitted By: For Amusement Only
EMail: boomer_delonge@hotmail.com
Pump Up The Valuum - 2000
another song about drugs off an album full of songs about drugs

# intro #
G---------------------------4---|
D-----------6-------------------|
A---3---------------0-----------|
E-------------------------------|
:
# chord-struggle #   *=play 4X                                      >
G---5-5---|-5-5-5*|-5-5-7*|-7-7-7*|-7-7-9*|-9-9-9*|-9-910*|101010*|->
D---3-3---|-3-3-3-|-3-3-5-|-5-5-5-|-5-5-7-|-7-7-7-|-7-710-|101010-|->
A---------|-------|-------|-------|-------|-------|-------|-------|->
E---------|--3X---|-------|--3X---|-------|--3X---|-------|--3X---|->
>chord-struggle
>--101012*-121212*-1010-9*--9-9-9*--9-912*-121212*-121212*-121212---|
>--101010--101010--101010--101010--101012--121212--121212--121212---|
>-------------------------------------------------------------------|
>-------------------------------------------------------------------|
:
# verse #   !play all notes 6X!
G-------------------------------------------------------|
D-------------------------------------------------------| > Then play intro
A---3-------1-------0------/8------10-------8-------8---|   (!all notes 6X!).
E-------------------------------------------------------|
:
# verse2 #|(Are we men...)  !play all notes 24X!
G----------------------------------------------------|
D----------------------------------------------------| > Then play verse.
A-------------------0-------8--------------10------\-|
E---1-------3-----------------------8----------------|
:
# verse3 #  (The corner store...)  *=play 5-6X                  >
G------------------------------------*---------------*-------*-->
D----*---------------*-------*------3--------*------5-------5--->
A---5--------*------3-------2---------------3------------------->
E-----------1--------------------------------------------------->
>verse3
>-------------------------------|
>----*-------*-----3------------|   > Then play verse.
>---5-------5--------*-------*--|
>-------------------1-------1---|
:
# outro #
G----------------------------------------------------------------------------|
D----------------------------------------------------------------------------|
A---3-------0---------------3-------2-------1-------0---------------3-------3|
E-------------------1---------------------------------------4----------------|


NOFX albums
2003 War on Errorism
2000 Pump Up the Valuum
1997 So Long And Thanks For All The Shoes
1996 Heavy Petting Zoo
1995 I Heard They Suck Live!!
1994 Punk in Drublic
1993 The Longest Line
1993 White Trash, Two Heebs & A Bean
1991 Ribbed
1989 S & M Airlines
Pump Up the Valuum tabs
01And Now for Something Completely Similar tabbass tab
03What's the Matter With Parents Today? tabbass tab
04Dinosaurs Will Die tabbass tab
05Thank God It's Monday tabbass tab
06Clams Have Feelings Too tabbass tab
07Louise tabbass tab
08Stranger Than Fishin' tabbass tab
09Pharmacist's Daughter tabbass tab
10Bottles to the Ground tabbass tab
11Total Bummer tabbass tab
12My Vagina tabbass tab
13Herojuana tabbass tab
14Theme from a Nofx Album tabbass tab

 

1