Search tabs:
Browse artists: 0-9 | A | B | C | D | E | F | G | H | I | J | K | L | M | N | O | P | Q | R | S | T | U | V | W | X | Y | Z
/ NOFX / Pump Up the Valuum (2000) / My Vagina bass tab

MY VAGINA - Nofx

By:the worlds worst bass player in the worlds worst punk band
send hate mail to:i_hate_punk_rock_and_bmx@hotmail.com

Intro (come in after the first drum roll)
G|--------------------------------------|  x1
D|--------------------------------------|
A|--------4-555-4---------------4-555-4-|
E|5/1-000---------5555555-4-000---------|

Verse
G|------------------------|  x8
D|------------------------|
A|----------------4-555-4-|
E|555-4-222-4-000---------|

Chorus
G|--------------------------------|  x3
D|0000-2222-----------------------|
A|----------2222------0000--------|
E|---------------0000-------2222--|

-----------------------
*pause for guitar solo*
-----------------------

verse intro
G|--------------------------------------|  x1
D|--------------------------------------|
A|--------4-555-4---------------4-555-4-|
E|----000---------5555555-4-000---------|

Verse
G|------------------------|  x8
D|------------------------|
A|----------------4-555-4-|
E|555-4-222-4-000---------|

Chorus
G|--------------------------------|  x3
D|0000-2222-----------------------|
A|----------2222------0000--------|
E|---------------0000-------2222--|

Verse
G|------------------------|  x2
D|------------------------|
A|----------------4-555-4-|
E|555-4-222-4-000---------|

thats it if its not right then i dont care, but i think it is.
the other tab for this song was about right but it wasnt structured and there
were a couple of mistakes so i tried to fix it up.(yes there is a slide if you
listen you here it right before the second guitar comes in on the intro)


NOFX albums
2003 War on Errorism
2000 Pump Up the Valuum
1997 So Long And Thanks For All The Shoes
1996 Heavy Petting Zoo
1995 I Heard They Suck Live!!
1994 Punk in Drublic
1993 The Longest Line
1993 White Trash, Two Heebs & A Bean
1991 Ribbed
1989 S & M Airlines
Pump Up the Valuum tabs
01And Now for Something Completely Similar tabbass tab
03What's the Matter With Parents Today? tabbass tab
04Dinosaurs Will Die tabbass tab
05Thank God It's Monday tabbass tab
06Clams Have Feelings Too tabbass tab
07Louise tabbass tab
08Stranger Than Fishin' tabbass tab
09Pharmacist's Daughter tabbass tab
10Bottles to the Ground tabbass tab
11Total Bummer tabbass tab
12My Vagina tabbass tab
13Herojuana tabbass tab
14Theme from a Nofx Album tabbass tab

 

1