Search tabs:
Browse artists: 0-9 | A | B | C | D | E | F | G | H | I | J | K | L | M | N | O | P | Q | R | S | T | U | V | W | X | Y | Z
/ NOFX / Ribbed (1991) / Brain Constipation bass tab

Song: Brain Constipation
Artist: NOFX
Album: Ribbed
Tabbed By: George Juniper (G dawg)

This song is probably the worst song off of ribbed,
even if it is the worst, there’s still not a bad NOFX
song in circulation Even the whole of maximum rock n roll Is OK
This is still kinda fun to play, some of it is hard to make out
so don’t come cryin if its wrong.

The intro is well long, i done it as intro and intro continued, play continued
as if it is the same line as intro.
Intro:
G:---------------------------------------------------------------------------------->
D:---------------------------------------------------------------------------------->
A:---------------------------------------------------------------------------------->
E:-5-5-5-5-5-5-5-5-3-3-3-5-5-5-5-3-/5-5-5-5-5-5-5-3-3-3-5-5-5-5-3-/-5-5-5-5-5-5-5-3->

Intro continued:
>---------------------------------------5|
>------------------------------------5---|
>--------3-0-3-5-3-0-0-0-3-0-3-5-7-------|
>-3--------------------------------------|

Verse: (pause after each go)                                         X2
G:--------------------------------------------------------------|
D:--------------------------------------------------------------|
A:--------------------------------------------------------------|
E:---5-5-5-5-5-5-5-5-3-3-3-5-5-5-5-3-/-5-5-5-5-5-5-5------------|

Verse2:   *= Play X6
G:----------------------------------------------5--4--------------->
D:----------------------------------------------------------------->
A:------*-*--5-5-5-3-----*-5-5-5-----*-*-5-5-5-------------*--5-5-5>
E:---5-5-5------------3-3---------5-5-5-----------------3-3-------->
>verse2
>---------------------------------------------/END1-\\---|
>-------------------------------------------------------|
>------*-*-5-5-5-3-------*-5-5-5----*-*-5-5-5---5--0----|
>---5-5-5----------3—-3-3--------5-5-5--------3---------|

bridge:   ‘I'm going away’   *=play 16X   #=play 12X
G:---------------------------------------------------------------------|
D:----------------------------*-----------*----------------------------|
A:----*-----------*----------7-----------8------------#--------5-5-5---|
E:---1-----------3-----------------------------------3-----------------|

Verse2:   *= Play X6
G:----------------------------------------------5--4--------------->
D:----------------------------------------------------------------->
A:------*-*--5-5-5-3-----*-5-5-5-----*-*-5-5-5-------------*--5-5-5>
E:---5-5-5------------3-3---------5-5-5-----------------3-3-------->
>verse2
>-------------------------------------------------------|
>-------------------------------------------------------|
>------*-*-5-5-5-3-------*-5-5-5----*-*-5-5-5---5--0----|
>---5-5-5----------3—-3-3--------5-5-5--------3---------|

Bridge intro:
G:---------------16--------------|
D:---------14-16----16-14h16-16--|
A:---0/////----------------------|
E:-------------------------------|

bridge2:   *=play 12X   #=play 7X              >
G:-------------------2X---------------------------->>
D:----*-------------------------------------------->>
A:10-8--------------10-10-10----10-7-10-7-10--10--#>>
E:---------------------------0-0----------------10->>

bridge2
>----------------------------------------------11--12--11----|
>------*------------------------------------/12--12--12--12--|
>--10-8-------10-10-10----10-7-10-7-10-----------------------|
>----------------------0-0-----------------------------------|

G:---------------16--------------|
D:---------14-16----16-14h16-16--|
A:---0/////----------------------|
E:-------------------------------|


NOFX albums
2003 War on Errorism
2000 Pump Up the Valuum
1997 So Long And Thanks For All The Shoes
1996 Heavy Petting Zoo
1995 I Heard They Suck Live!!
1994 Punk in Drublic
1993 The Longest Line
1993 White Trash, Two Heebs & A Bean
1991 Ribbed
1989 S & M Airlines
Ribbed tabs
01Green Corn tabbass tab
02The Moron Brothers tabbass tab
03Showerdays tabbass tab
04Food, Sex & Ewe tabbass tab
05Just The Flu tabbass tab
06El Lay tabbass tab
07New Boobs tabbass tab
08Cheese tabbass tab
09Where's My Slice tabbass tab
10Together On The Sand tabbass tab
11Nowhere tabbass tab
12Brain Constipation tabbass tab
13Gonoherpasyphlaids tabbass tab
14I Don't Want You Around tabbass tab
15The Malachi Crunch tabbass tab

 

1