Search tabs:
Browse artists: 0-9 | A | B | C | D | E | F | G | H | I | J | K | L | M | N | O | P | Q | R | S | T | U | V | W | X | Y | Z
/ NOFX / Ribbed (1991) / Just The Flu bass tab

Song: Just The Flu
Album: Ribbed
Artist: NOFX
Tabbed by: George Juniper (G Dawg)

This song is a pretty darn sweet addition, to the ribbed album,
and I don’t think the album would be the same without it, it has
a raw punk rock sound, with ribbed’s signature fast guitar solo’s.SWEET!
I know I say every song that I tab is fukin brilliant, but that is
because ribbed is a brilliant album, and probably ONE of my favourite
NOFX albums.(there’s sooo many to choose from!)

Intro:                                              Play this part every time you have played the first bit 3 times
G:------------------------------------|----------------------------|
D:------------------------------5-----|----------------------------|
A:-0-0-0-0-0-0-0--0-5-6-7-------------|----3-3-3--2-2-2------------|
E:------------------------------------|-------------------3-3-3----|

Guitar solo:
G:-----------------------------------------------------------------|
D:----------------3-3-3--3-3-3----------------5-5-5--5-3-2---------|
A:-0-0-0--0-0-0---------------3-3-3--3-3-3-------------------------|
E:-----------------------------------------------------------------|

Verse:X4
G:-----------------------------------------------------------------|
D:-------------------------------------------------5-5-5--5-5-5----|
A:-0-0-0--0-0-0----------------3-3-3--3-3-3------------------------|
E:-----------------1-1-1--1-1-1------------------------------------|

Chorus: X2     *=play 12X
G:---------------------------------|
D:----*---------------*------------|
A:---0--------*------3--------*----|
E:-----------1---------------3-----|

Bridge:
G:-------------------------------------|
D:-------------------------------------|
A:-------------------------------------|
E:---5-5--3-6-6--5----8-6-5-5-5--------|

Solo2:
G:----------------------------------------------------------------|
D:-3-3-3--3-3-3-------------------5-5-5--5-3-2---3-3-3------------|
A:----------------3-3-3--3-3-3-----------------------------3-3-3--|
E:----------------------------------------------------------------|

Verse:X4
G:--------------------------------------------------------------|
D:-------------------------------------------------5-5-5--5-5-5-|
A:-0-0-0--0-0-0----------------3-3-3--3-3-3---------------------|
E:-----------------1-1-1--1-1-1---------------------------------|

Chorus: X2     *=play 12X
G:------------------------------------------------------|
D:----*---------------*---------------------------------|
A:---0--------*------3----------------------------------|
E:-----------1---------------3-3-3-3-3-3-3>5>3----------|

> = slide to note


NOFX albums
2003 War on Errorism
2000 Pump Up the Valuum
1997 So Long And Thanks For All The Shoes
1996 Heavy Petting Zoo
1995 I Heard They Suck Live!!
1994 Punk in Drublic
1993 The Longest Line
1993 White Trash, Two Heebs & A Bean
1991 Ribbed
1989 S & M Airlines
Ribbed tabs
01Green Corn tabbass tab
02The Moron Brothers tabbass tab
03Showerdays tabbass tab
04Food, Sex & Ewe tabbass tab
05Just The Flu tabbass tab
06El Lay tabbass tab
07New Boobs tabbass tab
08Cheese tabbass tab
09Where's My Slice tabbass tab
10Together On The Sand tabbass tab
11Nowhere tabbass tab
12Brain Constipation tabbass tab
13Gonoherpasyphlaids tabbass tab
14I Don't Want You Around tabbass tab
15The Malachi Crunch tabbass tab

 

1