Search tabs:
Browse artists: 0-9 | A | B | C | D | E | F | G | H | I | J | K | L | M | N | O | P | Q | R | S | T | U | V | W | X | Y | Z
/ NOFX / Ribbed (1991) / New Boobs bass tab

Song: New Boobs
Album: Ribbed
Artist: NOFX
Tabbed by: George Juniper (G dawg)

This song is quite Cool, the voice choir bit at the end will make
you chuckle for sure.
This song variants so *** much, so where it says, > go onto the next
line carrying it on. Ok?
Well this is quite hard coz of its variations, but I wish you luck
with it all the same.

# intro #    *=play 4X           %=pause
G:----------------------------------------------------*--|
D:---------------------------------------------------5---|
A:---7-7-%%%%%%%%%%%%%-7-7-%%%-7-5-7-%%%-3-3-3-3-2-2-----|
E:-------------------------------------------------------|

Line: X2
G:-------------------------------------------------------------------------------|
D:-----------------------------------------------------------------------5-5-5-5-|
A:---------------5-5-5-5-3-5---0-0-0-0---------------5-5-5-3-3-3-3-2-2-----------|
E:---0-0-3-0-3----------------3------------0-0-3-0-3-----------------------------|

Verse: X2   *=play 5-6X    #=play 3X
G:---------------------------------------------------------------------|>
D:----*-------*-------*---------------*-------*-------*----------------|>
A:---7-------7-------7---------------5-------5-------7-----5-------5-6-|>
E:---------------------------0-2-3-2-------------------------00303-----|>

G:-------------------------------------------------------------------|>
D:----*-------*-------*-------------------*-------*-------*-------*--|>
A:---7-------7-------7-------7-9-10-9-5-------5-------0-------0------|>
E:-------------------------------------------------------------------|>

G:----------------------------------------------|>
D:----*-------*-------#--7-6-7-9-7-6-7-6--------|>
A:--7-------7-------0------------------------9--|>
E:----------------------------------------------|>

End of verse *=play 6X
G:-----------------------------------------------------------------------|
D:----*-------*-------*-------*-------*-------*-------*-------*----------|
A:---7-------7-------0-------0-------5-------5-------0-----/12-------7\\--|
E:-----------------------------------------------------------------------|

Line: X2
G:------------------------------------------------------------------------------|
D:----------------------------------------------------------------------5-5-5-5-|
A:---------------5-5-5-5-3-5---0-0-0-0---------------5-5-5-3-3-3-3-2-2----------|
E:---0-0-3-0-3----------------3------------0-0-3-0-3----------------------------|

# bridge #
G:-----------------------------|
D:-----------------------------|
A:------/7--------/7-----------|
E:---0---------0---------------|

Verse 2: X2   *=play 5-6X   #=play 3X   (Now my body is a model...) >
G:---------------------------------------------------------------------------|>
D:----*-------*-------*-------*-------*-------*-------*----------------------|>
A:---7-------7-------7-------7-------5-------5-------7-----5-------------5-6-|>
E:---------------------------------------------------------------0-0-3-0-3---|>

G:-------------------------------------------------------------------------|
D:----*-------*-------*-----------------*-------*-------*-------*----------|
A:---7-------7-------7----------------5-------5-------0-------0-------7----|
E:---------------------------0-2-3-2---------------------------------------|

Voice choir line (new boobz—jugs)
G:-----------------------------|
D:-----------------------------|
A:---3-3-2-0-0-----------------|
E:-------------3-1-1-1-3-3-3---|


NOFX albums
2003 War on Errorism
2000 Pump Up the Valuum
1997 So Long And Thanks For All The Shoes
1996 Heavy Petting Zoo
1995 I Heard They Suck Live!!
1994 Punk in Drublic
1993 The Longest Line
1993 White Trash, Two Heebs & A Bean
1991 Ribbed
1989 S & M Airlines
Ribbed tabs
01Green Corn tabbass tab
02The Moron Brothers tabbass tab
03Showerdays tabbass tab
04Food, Sex & Ewe tabbass tab
05Just The Flu tabbass tab
06El Lay tabbass tab
07New Boobs tabbass tab
08Cheese tabbass tab
09Where's My Slice tabbass tab
10Together On The Sand tabbass tab
11Nowhere tabbass tab
12Brain Constipation tabbass tab
13Gonoherpasyphlaids tabbass tab
14I Don't Want You Around tabbass tab
15The Malachi Crunch tabbass tab

 

1