Search tabs:
Browse artists: 0-9 | A | B | C | D | E | F | G | H | I | J | K | L | M | N | O | P | Q | R | S | T | U | V | W | X | Y | Z
/ NOFX / Ribbed (1991) / The Malachi Crunch bass tab

A=wide guitar  B=large guitar  A&B=both guitars

# intro #B  X14    !palm-muted!
E-------------------------------------|
B-------------------------------------|
G-------------------------------------|
D-------------------------------------|
A---4-4-7-4-4-4-6-4-4-4-7-4-6-4-4-4---|
E-------------------------------------|
                                                            ^=pause
# intro #A     comes along when introB has been played 8X.   \\=slide-down

E-----------------------------------|
B-----------------------------------|
G-----------------------------------|
D-----------------------------------|
A---4\\-^--------^-4-6-7-^-----^-4\\--|
E-----------------------------------|

# intro2 #A
E---------------------------------|
B---------------------------------|
G---------------------------------|
D---------------------------------|
A---4-6--7--4-6-7-4-6--7--4-6-7---|
E---------------------------------|

# intro2 #B     *=play 6X
E---------------------------------|
B---------------------------------|
G----*-------------*--------------|
D---7-------------9---------------|
A---7-------------9---------------|
E---5-------------7---------------|

# verse #A  X4    *=play 6X
E-------------------------------------------------|
B-------------------------------------------------|
G--------------------------------*-------------*--|
D-------------------------------7-------------9---|
A---4-6--7--4-6-7-4-6--7--4-6-7-7-------------9---|
E-------------------------------5-------------7---|

# verse #B  X4    *=play 6X
E-------------------------------------------------|
B-------------------------------------------------|
G----*-------------*-------------*-------------*--|
D--11------------11-------------7-------------9---|
A--11------------11-------------7-------------9---|
E---9-------------9-------------5-------------7---|

# bridge #A&B
E----------------------------------------------------------|
B----------------------------------------------------------|
G---7--7----------------------7---7--7-----------------7---|
D---7--7-------4---2--2-------7---7--7-------4---2--4--7---|
A---4--4-0-2-0-4---2--2-------4---4--4-0-2-0-4---2--4--4---|
E--------------2---0--0-0-2-0----------------2---0--2------|

Then play verseA X1 or verseB X1.

# verse2 #A  X3    *=play 6X
E-------------------------------------------------|
B-------------------------------------------------|
G--------------------------------*-------------*--|
D-------------------------------7-------------9---|
A---4-6--7--4-6-7-4-6--7--4-6-7-7-------------9---|
E-------------------------------5-------------7---|

# verse2 #B  X3    *=play 6X
E-------------------------------------------------|
B-------------------------------------------------|
G----*-------------*-------------*-------------*--|
D--11-------------9-------------7-------------9---|
A--11-------------9-------------7-------------9---|
E---9-------------7-------------5-------------7---|

Then play bridgeA&B (let end ring!)

# bridge2 #A
E--------------------------------------------------------------------->
B--------------------------------------------------------------------->
G-----------------------------------6-6-6-6-6------------------------->
D---7-7-7-7-7-----------------------6-6-6-6-6------------------------->
A---7-7-7-7-7-----------------------4-4-4-4-4------------------------->
E---5-5-5-5-5--------------------------------------------------------->

# bridge2 #B    !palm-muted!
E--------------------------------------------------------------------->
B--------------------------------------------------------------------->
G--------------------------------------------------------------------->
D-----------------------------------6-6-6-6-6-6-6-6-9-9-8-8----------->
A---7-7-7-7-7-7-7-7-6-6-4-4-2-2-2-2-4-4-4-4-4-4-4-4-7-7-6-6-9-9-9-9--->
E---5-5-5-5-5-5-5-5-4-4-2-2-0-0-0-0-------------------------7-7-7-7--->

>bridge2A
>--------------------------------------------------------------------->
>--------------------------------------------------------------------->
>---------------------------------------------------9---8------------->
>---7-7-7-7-7---------------------------------------9---8---9--------->
>---7-7-7-7-7---------------------------------------7---6---9--------->
>---5-5-5-5-5-----------------------------------------------7--------->

>bridge2B
>--------------------------------------------------------------------->
>--------------------------------------------------------------------->
>---------------------------------------------------9---8------------->
>-----------------------------------6-6-6-6-6-6-6-6-9---8---9--------->
>---7-7-7-7-7-7-7-7-6-6-4-4-2-2-2-2-4-4-4-4-4-4-4-4-7---6---9--------->
>---5-5-5-5-5-5-5-5-4-4-2-2-0-0-0-0-------------------------7--------->

>bridge2A
>-------------------------------|
>-------------------------------|
>-------------------------------|
>---7---7-----------6---4---2---|
>---7---7-----------6---4---2---|
>---5---5-----------4---2---0---|

>bridge2B
>-------------------------------|
>-------------------------------|
>-------------------------------|
>---7---7-----------6---4---2---|
>---7---7-----------6---4---2---|
>---5---5-----------4---2---0---|

# bridge3 #A&B        (But this time...)
E---------------------------------------------------------------|
B---------------------------------------------------------------|
G---6---6-----------9---8---------------------------------------|
D---6---6-----------9---8---9-------7---7-----------6---4---2---|
A---4---4-----------7---6---9-------7---7-----------6---4---2---|
E---------------------------7-------5---5-----------4---2---0---|

# bridge4 #A&B  X2      !palm-muted!     (Do you feel remorse...)
E---------------------------------------------------------------------|
B---------------------------------------------------------------------|
G---------------------------------------------------------------------|
D---6-6-6-6-6-6-6-6-9-9-9-9-9-----------------------------------------|
A---4-4-4-4-4-4-4-4-7-7-7-7-7-9-----7-7-7-7-7-7-7-7-6-6-4-4-2-2-2-2---|
E-----------------------------7-----5-5-5-5-5-5-5-5-4-4-2-2-0-0-0-0---|

# mid-intro #A      *=play 12X palm-muted                                 >
E------------------------------------------------------------------------->
B------------------------------------------------------------------------->
G------------------------------------------------------------------------->
D----*-----*-----*-----*-----*-----*-----*-----*-----------*-----------*-->
A---4-----4-----0-----0-----4-----4-----0-----0-----4-----4-----4-6-7-0--->
E------------------------------------------------------------------------->

>mid-introA
>----------------|
>----------------|
>----------------|
>-------------*--|
>---7-6-7--4-4---|
>----------------|

# mid-intro #B   starts same time as mid-introA    *=play 12X  ()=play 12X p-m
E--------------(-------------------------------)---|
B--------------(-----------12X-----------------)---|
G--------------(-------------------------------)---|
D----*-----*---(-------------------------------)---|
A---4-----4----(4-4-7-4-4-4-6-4-4-4-7-4-6-4-4-4)---|
E--------------(-------------------------------)---|

Then play intro2A or intro2B, verseA X1 or verseB X1, verse2A or verse2B and
end with bridgeA&B X2.


NOFX albums
2003 War on Errorism
2000 Pump Up the Valuum
1997 So Long And Thanks For All The Shoes
1996 Heavy Petting Zoo
1995 I Heard They Suck Live!!
1994 Punk in Drublic
1993 The Longest Line
1993 White Trash, Two Heebs & A Bean
1991 Ribbed
1989 S & M Airlines
Ribbed tabs
01Green Corn tabbass tab
02The Moron Brothers tabbass tab
03Showerdays tabbass tab
04Food, Sex & Ewe tabbass tab
05Just The Flu tabbass tab
06El Lay tabbass tab
07New Boobs tabbass tab
08Cheese tabbass tab
09Where's My Slice tabbass tab
10Together On The Sand tabbass tab
11Nowhere tabbass tab
12Brain Constipation tabbass tab
13Gonoherpasyphlaids tabbass tab
14I Don't Want You Around tabbass tab
15The Malachi Crunch tabbass tab

 

1