Search tabs:
Browse artists: 0-9 | A | B | C | D | E | F | G | H | I | J | K | L | M | N | O | P | Q | R | S | T | U | V | W | X | Y | Z
/ NOFX / Ribbed (1991) / The Moron Brothers bass tab

THE MORON BROTHERS by NOFX. Album: Ribbed (1991)
Funny song with cool basslines.
Tabbed By Glen
:
# intro # X4                (After this comes the muted part without bass)
G------------------------------------------------------------|
D------------------------------------------------------------|
A---3-3--3-3-3--------------3-5-5--5-5-5-5--7-8-8--8-8-8-8---|
E--------------3-1--1-1-1-1----------------------------------|
:
# line #
G----------------------------------------------------------|
D----------------------------------------------------------|
A---3-3--3-3-3-----------------3-3--3-3-3-3----------------|
E--------------3-1-1--1-1-1-1---------------3-3--3-3-3-3---|
:
# line2 #       *=play 12X
G----------------------------------------------------------------|
D----*-----------------------------------------------------------|
A---3------------*-----------*----------3-3-3-5-5-5-8-8-8--8-7---|
E---------------3-----------1------------------------------------|
:
# verse # X2     (They`re idiots, they`re losers...)
G----------------------------------------------------------|
D----------------------------------------------------------| > Then play line
A---3-3--3-3-3-3---------------3-3--3-3-3-3-3--------------|   and verseX2.
E----------------1-1--1-1-1-1-----------------3--1-1-1-1---|
:
# pre-chorus #
G----------------------------------------------------------|
D----------------------------------------------------------|
A---3-3--3-3-3-----------------3-3-3-5-5-5-8-8-8-7-7-7-7---|
E--------------3-1-1--1-1-1-1------------------------------|
:
# chorus # X2 *=play 6X      # end-chorus #A&B  !play all notes 3X!
G-------------------|        G-------------------------------------------|
D----*--------------|        D-------------------------------------------|
A---3----*---*---*--|        A---3---------------3-----------------------|
E-------3---1---3---|        E-------3---1-----------3---1---1---3---3---|
:
# bridge #                                                    >
G------------------------------------------------------------->
D---------------------------------------------5--53--32--2---->
A---3--32--20--0------------------3--32--20--0---------------->
E---------------3--31--10--03-----------------------------3--->
>bridge
>-------------------------------|
>-------------------------------|    > Then play introX1. >
>---3--32--20--0----------------|
>---------------3--31--10--03---|
:
# line3 #    (When your head is shaved...)
G------------------------------------------------------------>
D----------------3--3-3-3-3---------------------------------->
A---3-3--3-3-3--------------3-5-5--5-5-5-5--7-8-8--8-8-8-8--->
E--------------3--------------------------------------------->
>line3
G---------------------------------|
D---------------------------------|   > Then play pre-chorus.
A---3--2--0-----------------------|
E------------3--1-1-1-1-3-3-3-3---|
:
# chorus2 #   *=play 6X                  # end-chorus2 #   *=play 3X
G-----------------------------------|    G-------------------------------|
D--------------------*--------------|    D----*---------------*----------|
A---3-3--3--pause---3----*---*---*--|    A---3----*---*------3----*------|
E-----------------------3---1---3---|    E-------3---1-----------3---1---|
There! Try to figure them out.


NOFX albums
2003 War on Errorism
2000 Pump Up the Valuum
1997 So Long And Thanks For All The Shoes
1996 Heavy Petting Zoo
1995 I Heard They Suck Live!!
1994 Punk in Drublic
1993 The Longest Line
1993 White Trash, Two Heebs & A Bean
1991 Ribbed
1989 S & M Airlines
Ribbed tabs
01Green Corn tabbass tab
02The Moron Brothers tabbass tab
03Showerdays tabbass tab
04Food, Sex & Ewe tabbass tab
05Just The Flu tabbass tab
06El Lay tabbass tab
07New Boobs tabbass tab
08Cheese tabbass tab
09Where's My Slice tabbass tab
10Together On The Sand tabbass tab
11Nowhere tabbass tab
12Brain Constipation tabbass tab
13Gonoherpasyphlaids tabbass tab
14I Don't Want You Around tabbass tab
15The Malachi Crunch tabbass tab

 

1