Search tabs:
Browse artists: 0-9 | A | B | C | D | E | F | G | H | I | J | K | L | M | N | O | P | Q | R | S | T | U | V | W | X | Y | Z
/ NOFX / So Long And Thanks For All The Shoes (1997) / Kids Of The K-Hole bass tab

NOFX - Kids Of The K-hole
Submitted By: For Amusement Only
EMail: boomer_delonge@hotmail.com


# intro #
G---------------|-----6-7-9-7-6-6/4-6-|---------------|
D---777-7-777-7-|-7-7-----------------|-777-7-777-7---|
A---------------|---------------------|---------------|
E----about-12X--|----watch-rhythm-----|---about-12X---|
:
# into-verse #   *=play 20X   #=play 10X   (Everybody needs some...)
G-------------------------|
D----*-----*-----#-----*--|
A---0----/8-----3---#-8---|
E------------------3------|
:
# verse #   !play all notes 20X!   (An 18 hour holiday...)
G-------------------------------------|
D-------------------------------------|
A---5-----0----------------------/8---|
E---------------3-----2-----1---------|
:
# verse2 #   *=play 18-20X   !let the last note ring!
G------------*-------*-----------------------*-------*--|
D----*---3-58----7-53--------*-------*---3-58----7-53---|
A---3-----------------------3-------3-------------------|
E-------------------------------------------------------|
:
# verse3 #    *=play 20X   #=play 10X  (Somewhere between eden...)
G-------------------------------------------------------------|
D----*-----*-----*-----#--#--*-----*-----#--#--*-----#--#--*--|
A---0----/8----10-----3--2--0----/8-----3--2-/8-----5--0--8---|
E-------------------------------------------------------------|
:
Then play verse2.
:
# verse5 #    *=play 20X   #=play 10X   (It may sound good to you...)
G-------------------------------------------------------|
D----*-----*-----#--#--*-----*-----*--------------------|
A---0----/8-----3--2-/8-----5-----0------*-----*--------|
E---------------------------------------3-----2-----1---|


NOFX albums
2003 War on Errorism
2000 Pump Up the Valuum
1997 So Long And Thanks For All The Shoes
1996 Heavy Petting Zoo
1995 I Heard They Suck Live!!
1994 Punk in Drublic
1993 The Longest Line
1993 White Trash, Two Heebs & A Bean
1991 Ribbed
1989 S & M Airlines
So Long And Thanks For All The Shoes tabs
01It's My Job To Keep Punk Rock Elite tabbass tab
02Kids Of The K-Hole tabbass tab
03Murder The Government tabbass tab
04Monosyllabic Girl tabbass tab
05180 Degrees tabbass tab
06All His Suits Are Torn tabbass tab
07All Outta Angst tabbass tab
08I'm Telling Tim tabbass tab
09Champs Elysees tabbass tab
10Dad's Bad News tabbass tab
11Kill Rock Stars tabbass tab
12Eat The Meek tabbass tab
13The Desperation's Gone tabbass tab
14Flossing A Dead Horse tabbass tab
15Quart In Session tabbass tab
16Falling In Love tabbass tab

 

1