Search tabs:
Browse artists: 0-9 | A | B | C | D | E | F | G | H | I | J | K | L | M | N | O | P | Q | R | S | T | U | V | W | X | Y | Z
/ NOFX / The Longest Line (1993) / The Death Of John Smith bass tab

NOFX - The Death Of John Smith
Submitted By: For Amusement Only
EMail: boomer_delonge@hotmail.com
The Longest Line - EP - 1992 - 1st NOFX release on Fat

# intro #    !fuckin'-fast!                        *=play 36X              >
G-|-----------------------|141414/17171917141414-|-----------------------|->
D-|-----7/101010-7/101212-|----------------------|-----7/101010-7/101212-|->
A-|-0-0-------------------|----------------------|-0-0-------------------|->
E-|----------3X-----------|-during-pick-slide----|----------14X----------|->
>intro
G--14141414141714141414----------19----------------------------------------|
D----------------------1717171717--17171717--*-----------------------------|
A-------------------------------------------0------------------------------|
E--\---------faster-than-fuckin'-fast-----/--------------------------------|
:
# main #    %=pause                                                 >
0------------------------------------------------------------------->
D---------55553---------5-5----------55553-------------------55553-->
A---0-0-0------3--0-0-0-----3--0-0-0------3-----------%0-0-0------3->
E-------------------------------------------%1-1-%3-3--------------->
>main                                                               >
>------------------------------------------------------------------->
>-----------------------55553-------------------55553---------5-5--->
>---0-0-0---------0-0-0------3-----------%0-0-0------3--0-0-0-----3->
>---------333-34-%-------------%1-1-%3-3---------------------------->
>main
>------------------------------------------------|
>---------55553------------%3-3-%5-5-------------|
>---0-0-0------3---------------------------------|
>----------------%1-1-%3-3-----------%1-1-%3-3---|
:
# verse # X4   %=pause
G-----------------------------------------------------|
D-----------------------------------------------------|
A---0-0-0-0-%%%-0-0-0-0-%%%/8-8-8-8-8-8-3-3-3---------|
E---------------------------------------------3-3-3---|
:
# chorus #   *=play 6X   #=play 3X   (So I keep on working...)
G----*---------------*---------------*-------*--|
D---3--------#------3--------#---#--3-------5---|
A-----------3----#----------2---3---------------|
E---------------3-------------------------------|
:
# TILT #   %=pause   p=pull-off                                        >
G-------------5-5-----------------------------5-5---------------------->
D---7\%%%-7p5-----------7-7-7-7-7---------7p5-----7p5-5-5-7p5---------->
A------------7----0-%%%-----------0-0-0-0----7-------7-------7-3--5--0->
E---------------------------------------------------------------------->
>TILT                                                                    >
>-----------------------------------------5-5---------------------------->
>-------------------7-7-7-7-7---------7p5-----7p5-5-5-7p5------------710\>
>---------------%%%-----------0-0-0-0----7-------7-------7-3--5--8-8----->
>-%%%%%%%-3-4-5\--------------------------------------------------------->
>TILT
>-------------------------------------|
>-----------5-7-5-7-7-----------------|
>---55566677----------%%%-------------|
>-------------------------3-3-3-3-4---|
:
# main2 #    %=pause
0-------------------------------------------------------|
D---------55553---------5-5----------55553--------------|
A---0-0-0------3--0-0-0-----3--0-0-0------3-----%1010---|
E-------------------------------------------%1-1--------|

# verse2 #  %=pause        (Day after day...)       >
G-----------------------------------------912------->
D----------------1114------------------10----1210-9->
A--12121212\%%%12----12\%%%-8-8-8-8-8-8------------->
E--------------------------------------------------->
>verse2                                             >
>-|-------------------2X------------------912------|>
>-|------------------------------------10----1210-9|>
>-|12121212\%%/15151512\%%%-8-8-8-8-8-8------------|>
>-|------------------------------------------------|>
>verse2
>-----------------------------------------912---------|
>--------------------------------------10----1210-9---|  > Then play chorus.
>--12121212\%%/19171512\%%%-8-8-8-8-8-8---------------|
>-----------------------------------------------------|
:
# bridge # X3  !play all notes 16X! (When the pity spins your mind...)
G---------------------------------------------------------------------------|
D---------------------------------------------------------------------------|
A---0-------------------5-------0---------------5------12------10-------5---|
E-------------3-------------------------3-----------------------------------|
:
# main3 #
G----------------------------------------------------------|
D---------55553---------55553---------55553---3332-0-------|
A---0-0-0------3--0-0-0------3--0-0-0------3---------222---|
E----------------------------------------------------------|
:
# verse2 #   (I got my family...)                   >
G--------------------------------------------------->
D--------------------------------------------------->
A---0-0-0-0-0-0-0-0-0-0-0-0/8-8-8-8-8-8-3-3-3------->
E---------------------------------------------3-3-3->
>verse2                                             >
>--------------------------------------------------->
>--------------------------------------101010------->
>-/121212121212121212121212-8-8-8-8-8-8------101010->
>--------------------------------------------------->
>verse2                                             >
>-----------------------------------------912------->
>--------------------------------------10----1210-9->
>--121212121212\0-0-0-0-0-0/8-8-8-8-8-8------------->
>--------------------------------------------------->
>verse2
>-----------------------------------------------------|
>-----------------------------------------------------| > Then play chorus
>--121212121212151515121212-8-8-8-8-8-8-3-3-3---------|  (last two notes 12X).
>---------------------------------------------3-3-3---|
:
# outro #         %=pause                                                 >
0------------------------------------------------------------------------->
D---------55553---------5-5----------55553------------%3-3-%5-5----------->
A---0-0-0------3--0-0-0-----3--0-0-0------3------------------------------->
E-------------------------------------------%1-1-%3-3-----------%1-1-%3-3->
>outro
G-------------5-5-------------|
D---------7p5-----------------|
A---0-0-0----7----%%%---------|
E---------------------5-3-5\--|


NOFX albums
2003 War on Errorism
2000 Pump Up the Valuum
1997 So Long And Thanks For All The Shoes
1996 Heavy Petting Zoo
1995 I Heard They Suck Live!!
1994 Punk in Drublic
1993 The Longest Line
1993 White Trash, Two Heebs & A Bean
1991 Ribbed
1989 S & M Airlines
The Longest Line tabs
01The Death Of John Smith tabbass tab
02The Longest Line tabbass tab
03Stranded tabbass tab
04Remnants tabbass tab
05Kill All The White Man tabbass tab

 

1