Search tabs:
Browse artists: 0-9 | A | B | C | D | E | F | G | H | I | J | K | L | M | N | O | P | Q | R | S | T | U | V | W | X | Y | Z
/ NOFX / War on Errorism (2003) / Anarchy Camp bass tab

yo bitches this took me almost a yr to get the entire thing done...i wanted the tab
but no 1 on taborama had it tabed yet, so i was like fuck it ill give it a try

Tabber: Alex Calviera (tigerarmy_casulty)
Song: NOFX-Anarchy Camp




intro
G-------------------|
D---------------8---|
A-----------6---6---|
E---6---3-----------|

verse  0:26ish                                                     >
G------------------------------------------------------------------->
D-------3-3-----3-3------------------------------------------4444444>
A---1--1----1--1--------1-3-5---135-6--65-3--6665-3--6665-3--------->
E-------------------3--3-------3------------------------------------>
>verse                                                              >
>-----------------------------------5--53----5553---5--53----5553--->
>-------3-3-----3-3-----3-3-----3-3-------5-------5-------5-------5->
>---1--1----1--1----1--1----1--1------------------------------------>
>------------------------------------------------------------------->
>verse
>-------5-2-----5-2-----5-2-----5-2-|
>---3--3-----333----3--3-----333----|
>-----------------------------------|
>-----------------------------------|

bridge
G--|3--3-----3-3----2--2-----2-2---|--------------------5-5-----2-3-|
D--|----3-------3-------3-------3--|5--5-----5-5----3--3-----3-3----|
A--|------5-------5-------5-------5|----6-3-----6-3-----------------|
E--|------------|2X|---------------|--------------------------------|

start-verse2
G-------------------------------------------------------------------|
D-------3-3-----3-3------------------------------------------4444444|
A---1--1----1--1--------1-3-5---135-66665-3--6665-3--6665-3---------|
E-------------------3--3-------3------------------------------------|

Then play verse

 bridge2
G--|3--3-----333----2--2-----222---|--------------------2-2-----2-3-|
D--|----3-------3-------3-------3--|5--5-----555----3--3-----3-3----|
A--|------5-------5-------5-------5|----6-3-----6-3-----------------|
E--|------------|2X|---------------|--------------------------------|

outro-verse
G--|--------------------------|2X|----------------------2-5-----2-5|--------|
D--|----3-3-----3-3----------------------------------333-----333---|--------|
A--|1--1----1--1--------1-3-5---135-6--65-3--6665-3----------------|1-------|
E--|----------------3--3-------3-----------------------------------|--------|

hahaha...try to play and sing this song at the same time and i will respect u for life!
it takes some time to learn, but deff a great song


NOFX albums
2003 War on Errorism
2000 Pump Up the Valuum
1997 So Long And Thanks For All The Shoes
1996 Heavy Petting Zoo
1995 I Heard They Suck Live!!
1994 Punk in Drublic
1993 The Longest Line
1993 White Trash, Two Heebs & A Bean
1991 Ribbed
1989 S & M Airlines
War on Errorism tabs
01The Separation of Church and Skate tabbass tab
02The Irrationality of Rationality tabbass tab
03Franco Un-American tabbass tab
04Idiots Are Taking Over tabbass tab
05She's Nubs tabbass tab
06Mattersville tabbass tab
07Decom-poseur tabbass tab
08Medio-core tabbass tab
09Anarchy Camp tabbass tab
10American Errorist (I Hate Hate Haters) tabbass tab
11We Got Two Jealous Agains tabbass tab
1213 Stitches tabbass tab
13Re-gaining Unconsciousness tabbass tab
14Whoops, I OD'd tabbass tab

 

1