Search tabs:
Browse artists: 0-9 | A | B | C | D | E | F | G | H | I | J | K | L | M | N | O | P | Q | R | S | T | U | V | W | X | Y | Z
/ NOFX / War on Errorism (2003) / Decom-poseur bass tab

DECOM-POSUER by NOFX.
Album: The War on Errorism (2003)
:
# intro #  *=play 3X  %=pause
G------------------------*--*--*--*-------------------*--*--*--*->
D-----------------------5--4--3--3-------------------5--4--3--3-->
A---------------------------------------------------------------->
E---\\-5-355-355-355-35-------------5-355-355-355-35------------->
>
>---------------------*--*--*--*-----------------------------%%|
>--------------------5--4-10-10------------------------------%%|
>--------------------------------------------------*--*--*--*%%|
>---5-355-355-355-35-------------5-355-355-355-35-3--2--1--1-%%|
:
# verse #  *=play 6X  #=play 9X
G----------------------------------------------------------|
D----*----*----*----*----*----*----*----*------------------|
A---0----0----8----8----0----0----8----8-----#------*---*--|
E-------------------------------------------8---3//8---7---|
:
# verse2 #  *=play 12X  #=play 9X
G---------------------------------------------------------------------|
D----*-----*-----*-----*-----------------*-------------------*-----*--|
A---0-----8-----0-----8------*-----*----8------#-------*----5-----8---|
E---------------------------8-----6-----------8----3//8---------------|
:
# bridge #  *=play 3X
G---------------------*--*--*--*-----------------------------%%|
D--------------------5--4--3--3------------------------------%%|
A--------------------------------------------------*--*--*--*%%|
E---5-355-355-355-35-------------5-355-355-355-35-3--2--1--1-%%|
:
Repeat verse2 (play last note with pause 9X).
:
# solo-bg #  *=play 12X
G-------------------------------------------------------------------|
D----*-----*-----------*-----*-----*-----------*-----*-----*-----*--|
A---0-----5------*----3-----0-----5------*----3-----8-----3----10---|
E---------------3-----------------------3---------------------------|
:
# verse3 #  *=play 6X  #=play 9X
G--------------------------------------------------------------------------------|
D-----*----*----*----*----*----*----#-------------------*----------------*----*--|
A---12---12----8----8----0----0----8--/1515\--*----*---8-----#------*---5----8---|
E--------------------------------------------8----6---------8---3//8-------------|
:
# outro # X2 *=play 12X  !end whit first note!
G-------------------------|
D----*-----------------*--|
A---0------*-----*----5---|
E---------3-----1---------|
:
Tabbed by Leto 28.05.2003.


NOFX albums
2003 War on Errorism
2000 Pump Up the Valuum
1997 So Long And Thanks For All The Shoes
1996 Heavy Petting Zoo
1995 I Heard They Suck Live!!
1994 Punk in Drublic
1993 The Longest Line
1993 White Trash, Two Heebs & A Bean
1991 Ribbed
1989 S & M Airlines
War on Errorism tabs
01The Separation of Church and Skate tabbass tab
02The Irrationality of Rationality tabbass tab
03Franco Un-American tabbass tab
04Idiots Are Taking Over tabbass tab
05She's Nubs tabbass tab
06Mattersville tabbass tab
07Decom-poseur tabbass tab
08Medio-core tabbass tab
09Anarchy Camp tabbass tab
10American Errorist (I Hate Hate Haters) tabbass tab
11We Got Two Jealous Agains tabbass tab
1213 Stitches tabbass tab
13Re-gaining Unconsciousness tabbass tab
14Whoops, I OD'd tabbass tab

 

1