Search tabs:
Browse artists: 0-9 | A | B | C | D | E | F | G | H | I | J | K | L | M | N | O | P | Q | R | S | T | U | V | W | X | Y | Z
/ NOFX / War on Errorism (2003) / Franco Un-American bass tab

FRANCO UN-AMERICAN (Bassline)
                               As recorded by NOFX
                    (From the 2003 Album THE WAR ON ERRORISM)

Words and Music by Mike Burkett, Aaron Abeyta, Eric Melvin, and Erik Sandin
Transcribed by Matt Curry

Gtr I (E A D G) - 'Untitled'

 Intro
  Q=150
 2/4    4/4
  Gtr I
  W      Wx11          H.      Q
|------|-------------|-------------|
|------|-------------|-------------|
|------|-------------|---------5/--|
|------|-------------|-------------|


    Q  E E E E E E   Q  E E E E E E   Q  E E E E E E   E E E E E E E E
||-----------------|----------------|----------------|-------------------||
||o----------------|----------------|----------------|------------------o||
||o--------3-3-3---|----------------|----------------|-3-3-3---2-2-2----o||
||--3--3-----------|-3--3---0-0-0---|-5--5---5-5-5---|-------------------||


   Verse 1
    E E E E E E E E   E E E E E E E E   E E E E E E E E   E E E E E E E E
||------------------|-----------------|-----------------|-------------------||
||o-----------------|-----------------|-----------------|------------------o||
||o---------3-3-3-3-|-----------------|-----------------|-3-3-3-3-5-5-5-5--o||
||--3-3-3-3---------|-3-3-3-3-0-0-0-0-|-5-5-5-5-5-5-5-5-|-------------------||


 Interlude
  E E E E E E E E   E E E E E E E E   E E E E E E E E   E E E E E E E E
|-----------------|-----------------|-----------------|-----------------|
|-----------------|-----------------|-----------------|-----------------|
|-----------------|-----------------|-----------------|-3-3-3-3-5-5-5-5-|
|-3-3-3-3-3-3-3-3-|-2-2-2-2-2-2-2-2-|-0-0-0-0-0-0-0-0-|-----------------|


   Chorus
    Q  E E Q  E E   Q  E E Q  E E  3x Q  E E Q  E E   E H..
||----------------|----------------||---------------|----------|
||o---------------|---------------o||---------------|----------|
||o--------5--5-5-|--------3--3-3-o||--------5--5-5-|----------|
||--3--3-3--------|-0--0-0---------||-3--3-3--------|-0--------|


   Verse 2
    Q  E E E E E E   Q  E E E E E E   Q  E E E E E E   E E E E E E E E
||-----------------|----------------|----------------|-------------------||
||o----------------|----------------|----------------|------------------o||
||o--------3-3-3---|----------------|----------------|-3-3-3---2-2-2----o||
||--3--3-----------|-3--3---0-0-0---|-5--5---5-5-5---|-------------------||


    Q  E E Q  E E   Q  E E Q  E E   Q  E E E E E E   Q  E E Q  E E
||----------------|---------------|----------------|-----------------||
||o---------------|---------------|----------------|----------------o||
||o--------3--3-3-|---------------|----------------|-3--3-3-5--5-5--o||
||--3--3-3--------|-3--3-3-0--0-0-|-5--5-5-5-5-5-5-|-----------------||


    E E E E E E E E   E E E E E E E E   E E E E E E E E   E E E E E E E E
||------------------|-----------------|-----------------|-------------------||
||o-----------------|-----------------|-----------------|------------------o||
||o---------3-3-3-3-|-----------------|-----------------|-3-3-3-3-5-5-5-5--o||
||--3-3-3-3---------|-3-3-3-3-0-0-0-0-|-5-5-5-5-5-5-5-5-|-------------------||


    Q  E E Q  E E   Q  E E Q  E E   Q  E E E E E E
||----------------|---------------|----------------|
||o---------------|---------------|----------------|
||o--------3--3-3-|---------------|----------------|
||--3--3-3--------|-3--3-3-0--0-0-|-5--5-5-5-5-5-5-|


  Q  E E Q  E E     E E E E E E E E   E E E E E E E E
|----------------||-----------------|-----------------|
|---------------o||-----------------|-----------------|
|-3--3-3-5--5-5-o||-5-5-5-5-5-5-5-5-|-5-5-5-5-5-5-5-5-|
|----------------||-----------------|-----------------|


 Bridge
  Wx8
|--------|
|--------|
|--------|
|--------|


   Out-Chorus
    E E E E E E E E   E E E E E E E E  3x E E E E E E E E   E H..
||------------------|------------------||-----------------|----------*|
||o-----------------|-----------------o||-----------------|----------*|
||o---------5-5-5-5-|---------3-3-3-3-o||---------5-5-5-5-|----------*|
||--3-3-3-3---------|-0-0-0-0----------||-3-3-3-3---------|-0--------*|


Duration Legend
---------------
W - whole; H - half; Q - quarter; E - 8th; S - 16th; T - 32nd; X - 64th; a - acciaccatura
+ - note tied to previous; . - note dotted; .. - note double dotted
Uncapitalized letters represent notes that are staccato (1/2 duration)
Irregular groupings are notated above the duration line
Duration letters will always appear directly above the note/fret number it represents the
duration for.  Duration letters with no fret number below them represent rests.  Multi-
bar rests are notated in the form Wxn, where n is the number of bars to rest for.  Low
melody durations appear below the staff

Tablature Legend
----------------
 h   - hammer-on
 p   - pull-off
 b   - bend
 pb  - pre-bend
 r   - bend release (if no number after the r, then release immediately)
 /\  - slide into or out of (from/to "nowhere")
 s   - legato slide
 S   - shift slide
  - natural harmonic
[n]  - artificial harmonic
n(n) - tapped harmonic
 ~   - vibrato
 tr  - trill
 T   - tap
 TP  - trem. picking
 PM  - palm muting
\n/  - tremolo bar dip; n = amount to dip
 \n  - tremolo bar down
 n/  - tremolo bar up
/n\  - tremolo bar inverted dip
 =   - hold bend; also acts as connecting device for hammers/pulls
 <>  - volume swell (louder/softer)
 x   - on rhythm slash represents muted slash
 o   - on rhythm slash represents single note slash

Misc Legend
-----------
 |  - bar
||  - double bar
||o - repeat start
o|| - repeat end
*|  - double bar (ending)
 :  - bar (freetime)
 $  - Segno
 &  - Coda
Tempo markers -  = BPM(8/16=s8/s16), where s8 = swing 8ths, s16 = swing 16ths


***************************************************************************************
* Generated using Power Tab Editor by Brad Larsen - http://powertab.guitarnetwork.org *
***************************************************************************************


NOFX albums
2003 War on Errorism
2000 Pump Up the Valuum
1997 So Long And Thanks For All The Shoes
1996 Heavy Petting Zoo
1995 I Heard They Suck Live!!
1994 Punk in Drublic
1993 The Longest Line
1993 White Trash, Two Heebs & A Bean
1991 Ribbed
1989 S & M Airlines
War on Errorism tabs
01The Separation of Church and Skate tabbass tab
02The Irrationality of Rationality tabbass tab
03Franco Un-American tabbass tab
04Idiots Are Taking Over tabbass tab
05She's Nubs tabbass tab
06Mattersville tabbass tab
07Decom-poseur tabbass tab
08Medio-core tabbass tab
09Anarchy Camp tabbass tab
10American Errorist (I Hate Hate Haters) tabbass tab
11We Got Two Jealous Agains tabbass tab
1213 Stitches tabbass tab
13Re-gaining Unconsciousness tabbass tab
14Whoops, I OD'd tabbass tab

 

1