Search tabs:
Browse artists: 0-9 | A | B | C | D | E | F | G | H | I | J | K | L | M | N | O | P | Q | R | S | T | U | V | W | X | Y | Z
/ NOFX / War on Errorism (2003) / Idiots Are Taking Over bass tab

Artist	NOFX
Song	The Idiots Are Taking Over
Album	Regaining Unconsciousness

standard tuning

tabbed by TheBigLebowski (philmccracken7@yahoo.com)

Intro				8x
1|----8-10-8-10-8----8-10-8-7-7-7-|
2|-888-8--8-8--8--888-8--8-8-8-8--|
3|--------------------------------|
4|--------------------------------|

Verse
1|------------------------------------------------------------------------
2|------------------------------------------------------------------------
3|-9999-9999-5555-5555-----------13131313-13131313-9999-9999-5555-5555----
4|---------------------6666-6666---------------------------------------6~-
Cont.
1|----8-10-8-10-8----8-10-8-10-8-|-------------------------------------------------
2|-888-8--8-8--8--888-8--8-8--8--|-------------------------------------------------
3|-------------------------------|-9999-9999-5555-5555-----------13131313-13131313-
4|-------------------------------|---------------------6666-6666-------------------
Cont.			Chorus
1|---------------------|---------------------------------------------------------------
2|---------------------|---------------------------------------------------------------
3|-9999-9999-5555-5555-|------------------------------------6666-6666------------------
4|---------------------|66666666-66666666-33333333-33333333-----------66666666-6666666-
Cont.
1|-------------------------------|----8-10-8-10-8----8-10-8-10-8--|
2|-------------------------------|-888-8--8-8--8--888-8--8-8--8---|
3|----------------------------5~-|--------------------------------|
4|-33333333-33333333-11111111----|--------------------------------|

Verse	1x
Chorus	1x

Bridge			       2x	      2x	       2x	      4x
1|--------------|----------------|--------------|----------------|--------------|
2|-8-10-11-10-8-|-8-10h11p10-8---|-8-10-11-10-8-|-8-10h11p10-8---|-8-10-11-10-8-|
3|--------------|--------------9-|--------------|--------------9-|--------------|
4|--------------|----------------|--------------|----------------|--------------|
		2x	       2x	
1|----------------|--------------|--------------|                      |
2|-8-10h11p10-8---|-8-10-11-10-8-|-8-10h11p10-8-|Into 2nd half of verse|
3|--------------9-|--------------|--------------|                      |
4|----------------|--------------|--------------|                      |

Last Chorus
1|-------------------------------------------------------------------------|
2|-------------------------------------------------------------------------|
3|---------------------------------------------5555-5555-------------------|
4|-66666666-66666666-33333333-3333333-11111111-----------66666666-66666666-|
				       3x	
1|---------------------------------------|
2|---------------------------------------|
3|-8888-8888-5555-5555-------------------|
4|---------------------66666666-66666666-|

1|-------------------------8-10-8-10-8----8-10--------|
2|----------------------888-8--8-8--8--888-8---88888\-|
3|-8888-888-5555-5555---------------------------------|
4|-------------------6~-------------------------------|

Please rate this tab, Thanks.


NOFX albums
2003 War on Errorism
2000 Pump Up the Valuum
1997 So Long And Thanks For All The Shoes
1996 Heavy Petting Zoo
1995 I Heard They Suck Live!!
1994 Punk in Drublic
1993 The Longest Line
1993 White Trash, Two Heebs & A Bean
1991 Ribbed
1989 S & M Airlines
War on Errorism tabs
01The Separation of Church and Skate tabbass tab
02The Irrationality of Rationality tabbass tab
03Franco Un-American tabbass tab
04Idiots Are Taking Over tabbass tab
05She's Nubs tabbass tab
06Mattersville tabbass tab
07Decom-poseur tabbass tab
08Medio-core tabbass tab
09Anarchy Camp tabbass tab
10American Errorist (I Hate Hate Haters) tabbass tab
11We Got Two Jealous Agains tabbass tab
1213 Stitches tabbass tab
13Re-gaining Unconsciousness tabbass tab
14Whoops, I OD'd tabbass tab

 

1