Search tabs:
Browse artists: 0-9 | A | B | C | D | E | F | G | H | I | J | K | L | M | N | O | P | Q | R | S | T | U | V | W | X | Y | Z
/ NOFX / War on Errorism (2003) / Medio-core bass tab

Band:  NOFX
Song:  Medio-core
Album:  War On Errorism
Tabbed by:  LPbasser44

Hey, there were no tabs for this song, and it?s my favorite NOFX song, so I decided to do it for everybody.

I have the whole song, and I think it?s accurate, except for maybe a few parts in the chorus.

Intro: Second time only.  The numbers in parentheses are notes that the guitar plays, but bass doesn\'t.
G-------------------------(12)----------------(12)----------------------------------
D----(12)-------12------11---------11-------10-------10------(12)---------------
A--10--------10----10-10---------10---10-10--------10---10-10-----------------
E-----------------------------------------------------------------------------------

Verse X2
G-------------------------------  X2 -------5-55-55--------------------------------
D-------------------------------     -----------------------1-11-3-33-5-55-------
A-------------10-10-10-9-8-----       -3-33-----------3-33--------------------------
E-3-33-3-33---------------------     -----------------------------------------------

End verse (some old, some new, the same formula stays true)
G---------------------------------------------------------------------------------
D---------------------------------------------------------------------------------
A-----0-2-3-5-3-2-3-0----0-2-3-2-0-2-5--5-5-5----------------------------
E---3------------------3------------------------------------------------------

Chorus
G--------------------------12------------X4   ----------------------------------
D----------------------12-----9----------       --------------------------------
A--10-10-10-10-10------------------------       --10~--------------12~----------
E------------------------------------------       ---------10~------------------

G-----------------------------------------
D-----------------------------------------
A----------------------33333333-66666-----
E--3333333-2-1111111-3--------------------

Verse X2 with lots of distortion WITHOUT END VERSE

End verse 2      * = play 16 times
G---------------------------------------------------------------------------------
D--------------------------*--------*----------*---------*---------*-----------*--
A--------6-6------8-8---10--------9----------7---------5---------3-----------5---
E---3-3------6-6-----------------------------------------------------------------

G-----------------------------------------------------------------------------------
D------*---------------*-------------------*----------------*-----------------------
A---10--------------10------------------3----------------3--------------------------
E-----------------------------------------------------------------------------------

# = play 8 times
G--------------------------------------------------------------------------
D----#-------------------------#--------------------#---------------------
A?10/------------#----------10/---------#----------3---------6-8-68-10----
E---------------3----------------------3----------------------------------

G-----------------------------------------------------------------------------------
D---------------#----------#----------#------------#--------------------------------
A----#--------5----------0----------3------------5----------------------------------
E---3------------------------------------------------------------------------------

End Chorus
G----------------------12-----------X4    ------------------------------
D------------------12------9--------      ------------------------------
A--10-10-10-10-10-------------------      --10~---------------12~---
E-----------------------------------      -----------10~--------------

Then repeat the first section of the chorus 4 times again, followed by:

G---------------------------------------------
D---------------------------------------------
A------------3~------5~-------5------------
E?3~----------------------------3~--------

And that?s the whole song.  If you notice anything wrong, please tell me about it.  If you don?t, then please rate it well.


NOFX albums
2003 War on Errorism
2000 Pump Up the Valuum
1997 So Long And Thanks For All The Shoes
1996 Heavy Petting Zoo
1995 I Heard They Suck Live!!
1994 Punk in Drublic
1993 The Longest Line
1993 White Trash, Two Heebs & A Bean
1991 Ribbed
1989 S & M Airlines
War on Errorism tabs
01The Separation of Church and Skate tabbass tab
02The Irrationality of Rationality tabbass tab
03Franco Un-American tabbass tab
04Idiots Are Taking Over tabbass tab
05She's Nubs tabbass tab
06Mattersville tabbass tab
07Decom-poseur tabbass tab
08Medio-core tabbass tab
09Anarchy Camp tabbass tab
10American Errorist (I Hate Hate Haters) tabbass tab
11We Got Two Jealous Agains tabbass tab
1213 Stitches tabbass tab
13Re-gaining Unconsciousness tabbass tab
14Whoops, I OD'd tabbass tab

 

1