Search tabs:
Browse artists: 0-9 | A | B | C | D | E | F | G | H | I | J | K | L | M | N | O | P | Q | R | S | T | U | V | W | X | Y | Z
/ NOFX / War on Errorism (2003) / Re-gaining Unconsciousness bass tab

Song - Regaining Unconsciousness by NOFX
Performed and written by - Fat Mike
Tabbed by - Damaro

Well, this is the first tab written for this song, so at least it's better than nothing.

Intro Part 1 - 0:00
G-------|
D--------|
A--------|
E--55--|

Intro Part 2 x4 - 0:07
G--------------------------------------|
D-----------------55-----------------|
A----------------------555555-----|
E--55-55555----------------------|

Verse 0:19
G-------|
D-------|
A-------|
E---5--|

Chorus - 0:33
G------------------------------------------------------------------------------------------------------------------|
D------------------------------------------------------------------------------------------------------------------|
A------------------77777777-5555555555555555-44444444-22222222-00000000/5-|
E--55555555-------------------------------------------------------------------------------------------------|

Intro Part 2 - 0:46
Verse - 0:52

Sort Of Rumbly Noise - 0:59 (This is played along with the bass drum)
G-------------------------------------------------------------------------|
D-------------------------------------------------------------------------|
A-------------------------------------------------------------------------|
E--5555555555555555555555555555555555555---|

Chorus - 1:05

Descending Riff - 1:19
G----------------------------------------------------------------|
D----------------------------------------------------------------|
A----------------------------------------------------------------|
E--55555555-44444444-33333333-22222222-|

Half Chorus x2 - 1:32
G-----------------------------------------------------------------|
D-----------------------------------------------------------------|
A-------------------77777777-5555555555555555-|
E---55555555-----------------------------------------------|

Desc Riff 2 x4 - 1:51			Don't play the 1st time
G-----------------------------------------------------------------|----------------|
D-----------------------------------------------------------------|----------------|
A-------------------------------------------------55555555-|-77777777-|
E--55555555-44444444-33333333-----------------|----------------|

Outro - 2:23
G-----------------------|
D-----------------------|
A-----5----7-----------|
E--------5----3---5---|


NOFX albums
2003 War on Errorism
2000 Pump Up the Valuum
1997 So Long And Thanks For All The Shoes
1996 Heavy Petting Zoo
1995 I Heard They Suck Live!!
1994 Punk in Drublic
1993 The Longest Line
1993 White Trash, Two Heebs & A Bean
1991 Ribbed
1989 S & M Airlines
War on Errorism tabs
01The Separation of Church and Skate tabbass tab
02The Irrationality of Rationality tabbass tab
03Franco Un-American tabbass tab
04Idiots Are Taking Over tabbass tab
05She's Nubs tabbass tab
06Mattersville tabbass tab
07Decom-poseur tabbass tab
08Medio-core tabbass tab
09Anarchy Camp tabbass tab
10American Errorist (I Hate Hate Haters) tabbass tab
11We Got Two Jealous Agains tabbass tab
1213 Stitches tabbass tab
13Re-gaining Unconsciousness tabbass tab
14Whoops, I OD'd tabbass tab

 

1