Search tabs:
Browse artists: 0-9 | A | B | C | D | E | F | G | H | I | J | K | L | M | N | O | P | Q | R | S | T | U | V | W | X | Y | Z
/ NOFX / War on Errorism (2003) / We Got Two Jealous Agains bass tab

NOFX - We got to Jealous again
Tabbed By: primster
Email: kyleprimo@hotmail.com

Tuning: Standard (E A D G)




We got to Jealous again
kyle

INTRO

G|----------------------------------------------------------------||
D|----------------------------------------------------------------||
A|----------------------------------------------------------------||
E|5-5-5-5-5-5-5-5-5-5-5-5-5---------------------------------------||



G|----------------------------------------------------------------||
D|----------------------------------------------------------------||
A|-----------------------------------3---3/5----------------------||
E|5-5-5-5-5-5-1-1-1-1-1-1-3-3-3-3-3----3-----5--------------------||


G|----------------------------------------------------------------||
D|----------------------------------------------------------------||
A|----------------8-8-8-8-8-8-8-8-8-----------------5-5-5-5-5-5-5-||
E|-5-5-5-5-5-5-5--------------------3-3-3-3-3-3-3-3---------------||


G|----------------------------------------------------------------||
D|----------------------------------------------------------------||
A|------------3-3-3-3-3-3-----------------------------------------||
E|1-1-1-1-1-1-------------1-1-1-1-1-1-1-1--3-3-3-3-3-3-3----------||

interlude (i guess)
G|-------------------------|--------------------------------------||
D|-------------------------|--------------------------------------||
A|3333---3333---3333------3|3333--3333---3333---------------------||
E|----54-----43-----54-13--|----54----43-----54-13----------------||


G|----------------------------------------------------------------||
D|----------------------------------------------------------------||
A|3-3-3-3-3-3-----------------------------------------------------||
E|------------3-3-3-3-3-3-5-5-5-5-5-1-1-1-1-1-1-1-----------------||




G|----------------------------------------------------------------||
D|----------------------------------------------------------------||
A|--------------3-3-3-3-3-3-3-------------------------------------||
E|1-1-1-1-1-1-1--------------1-1-1-1-1-1-1-3-3-3-3-3-3------------||


G|----------------------------------------------------------------||
D|----------------------------------------------------------------||
A|-3-3-3-3-3-3-3-------------------------7-7-7-7-7-7-7-7----------||
E|--------------3-3-3-3-3-3-5-5-5-5-5-5-5-------------------------||




G|----------------------------------------------------------------||
D|----------------------------------------------------------------||
A|------------3-3-3-3-3-3-3---------------------------------------||
E|-1-1-1-1-1-1--------------1-1-1-1-1-1-3-3-3-3-3-3-3-------------||




G|----------------------------------------------------------------||
D|----------------------------------------------------------------||
A|----------------------------------------------------------------||
E|--3-3-3-3-3-3-3-3-3-3-3-3-3-3-3-3-3-3-3-3-3-3-3-3-3-3-3-3-3-3---||


G|-------------------------|--------------------------------------||
D|-------------------------|--------------------------------------||
A|3333---3333---3333------3|3333--3333---3333---------------------||
E|----54-----43-----54-13--|----54----43-----54-13----------------||



G|----------------------------------------------------------------||
D|----------------------------------------------------------------||
A|-3-3-3-3-3-3-3-3-3-3--------------------------------------------||
E|--------------------3-3-3-3-3-3-3-5-5-5-5-5-5-1-1-1-1-1-1-------||




G|----------------------------------------------------------------||
D|----------------------------------------------------------------||
A|-----------3-3-3-3-3-3-------------------------------------------||
E|-1-1-1-1-1-------------1-1-1-1-1-1-1-1-3-3-3-3-3-3---------------||



G|----------------------------------------------------------------||
D|----------------------------------------------------------------||
A|-3-3-3-3-3-3-3-3------------------------------------------------||
E|-----------------3-3-3-3-3-3-3-4-4-4-4-4-4-4-4-4-4-4-4-4-4-4----||



G|----------------------------------------------------------------||
D|----------------------------------------------------------------||
A|-3-3-3-3-3-3-3-----------------3-3-3-3-3-3-3-3-3-3-3-3-3-3-3-3--||
E|--------------3-3-3-3-3-3-3-3-3---------------------------------||




G|----------------------------------------------------------------||
D|----------------------------------------------------------------||
A|----------------------------------------------------------------||
E|-3-3-3-3-3-3-3-3-3-3-3-3-3-3-3-3--------------------------------||

G|----------------------------------------------------------------||
D|----------------------------------------------------------------||
A|---------------------------3-3-3-3-3-3-3------------------------||
E|5-5-5-5-5-5-5 1-1-1-1-1-1-1---------------3-3-3-3-3-3-3----------||

G|----------------------------------------------------------------||
D|----------------------------------------------------------------||
A|-----------------------------3-3-3-3-3-3-3-3-3-3-3-3------------||
E|-5-5-5-5-5-5-5-5-1-1-1-1-1-1------------------------------------||


G|-------------------------|--------------------------------------||
D|-------------------------|--------------------------------------||
A|3333---3333---3333------3|3333--3333---3333---------------------||
E|----54-----43-----54-13--|----54----43-----54-13----------------||


NOFX albums
2003 War on Errorism
2000 Pump Up the Valuum
1997 So Long And Thanks For All The Shoes
1996 Heavy Petting Zoo
1995 I Heard They Suck Live!!
1994 Punk in Drublic
1993 The Longest Line
1993 White Trash, Two Heebs & A Bean
1991 Ribbed
1989 S & M Airlines
War on Errorism tabs
01The Separation of Church and Skate tabbass tab
02The Irrationality of Rationality tabbass tab
03Franco Un-American tabbass tab
04Idiots Are Taking Over tabbass tab
05She's Nubs tabbass tab
06Mattersville tabbass tab
07Decom-poseur tabbass tab
08Medio-core tabbass tab
09Anarchy Camp tabbass tab
10American Errorist (I Hate Hate Haters) tabbass tab
11We Got Two Jealous Agains tabbass tab
1213 Stitches tabbass tab
13Re-gaining Unconsciousness tabbass tab
14Whoops, I OD'd tabbass tab

 

1