Search tabs:
Browse artists: 0-9 | A | B | C | D | E | F | G | H | I | J | K | L | M | N | O | P | Q | R | S | T | U | V | W | X | Y | Z
/ NOFX / War on Errorism (2003) / Whoops, I OD'd bass tab

Song: Whoops, I Od'd
Artist: NoFX
Album: The War On Errorism
By: Corwin H.

Alright I've been looking for the tab for
this song, but no-one has made one. I don't
know the whole song but i do know the first
part. Maybe this will get someone started
to finish it.

Listen to the song to hear how many times
you play each chord.


G|-9--|-10-|-12-------------------------|
D|-10-|-10-|-10-------------------------|
A|--------------------------------------|
E|--------------------------------------|

G|-5-|-7-|-9----------------------------|
D|-7-|-7-|-7----------------------------|
A|--------------------------------------|
E|--------------------------------------|

G|-10-|-9-|-7-|-5-----------------------|
D|-0--|-0-|-0-|-3-----------------------|
A|--------------------------------------|
E|--------------------------------------|


Please finish this tab. I been working on it.


NOFX albums
2003 War on Errorism
2000 Pump Up the Valuum
1997 So Long And Thanks For All The Shoes
1996 Heavy Petting Zoo
1995 I Heard They Suck Live!!
1994 Punk in Drublic
1993 The Longest Line
1993 White Trash, Two Heebs & A Bean
1991 Ribbed
1989 S & M Airlines
War on Errorism tabs
01The Separation of Church and Skate tabbass tab
02The Irrationality of Rationality tabbass tab
03Franco Un-American tabbass tab
04Idiots Are Taking Over tabbass tab
05She's Nubs tabbass tab
06Mattersville tabbass tab
07Decom-poseur tabbass tab
08Medio-core tabbass tab
09Anarchy Camp tabbass tab
10American Errorist (I Hate Hate Haters) tabbass tab
11We Got Two Jealous Agains tabbass tab
1213 Stitches tabbass tab
13Re-gaining Unconsciousness tabbass tab
14Whoops, I OD'd tabbass tab

 

1