Search tabs:
Browse artists: 0-9 | A | B | C | D | E | F | G | H | I | J | K | L | M | N | O | P | Q | R | S | T | U | V | W | X | Y | Z
/ NOFX / White Trash, Two Heebs & A Bean (1993) / Johnny Appleseed bass tab

Intro:
G|-----------|
D|----0----0-|
A|-0-2--4-2--|
E|-----2-----|

Verse:
G|----------------------------------------------|--------------|
D|----------------------------------------------|--------------|
A|-02020-00--02020-02--02020-02-0--02020-020--0-|-02020-0420-0-|
E|------2---------2---------2--2--------2---20--|------2----2--|

Chorus:
G|------------------------------------------------------------------|
D|---------------------------------0000000000000000-----------------|
A|-44444444444444442222222222222222----------------0000000000000000-|
E|------------------------------------------------------------------|


NOFX albums
2003 War on Errorism
2000 Pump Up the Valuum
1997 So Long And Thanks For All The Shoes
1996 Heavy Petting Zoo
1995 I Heard They Suck Live!!
1994 Punk in Drublic
1993 The Longest Line
1993 White Trash, Two Heebs & A Bean
1991 Ribbed
1989 S & M Airlines
White Trash, Two Heebs & A Bean tabs
01Soul Doubt tabbass tab
02Stickin In My Eye tabbass tab
03Bob tabbass tab
04You're Bleeding tabbass tab
05Straight Edge tabbass tab
06Liza & Louise tabbass tab
07The Bag tabbass tab
08Please Play This Song On The Radio tabbass tab
09Warm tabbass tab
10I Wanna Be Your Baby tabbass tab
11Johnny Appleseed tabbass tab
12She's Gone tabbass tab
13Buggley Eyes tabbass tab

 

1