Search tabs:
Browse artists: 0-9 | A | B | C | D | E | F | G | H | I | J | K | L | M | N | O | P | Q | R | S | T | U | V | W | X | Y | Z
/ NOFX / White Trash, Two Heebs & A Bean (1993) / She's Gone bass tab

NOFX "She's Gone"
By Jordan Moffitt
worthlivingfor@hotmail.com
:
# verse #   *=play 6X   #=play 3X                                       >
G-|--------------2X---------------|------------------------------------->
D-|--*-------*-------*-------#---#|--*-------*-------*-------#-------*-->
A-|-1-------3-------5-------5---3-|-1-------3-------8-------8---8-7-5--->
E-|-------------------------------|------------------------------------->
>verse
G-------------------------------|
D----*-------*-------#---#------|
A---5-------3-------1---3---5\\--|
E-------------------------------|
:
# verse2 # X2 *=play 6X  (We don't know...)  !second time without last note!
G-----------------------------------------------------------------|
D----*-------*-------*-------*---------------*--------------------|
A---1-------3-------0-------1--------*------0-------0-0-0-8-7-5\\--|
E-----------------------------------3-----------------------------|
:
Then play verse (without last note).
:
# chorus # X2   *=play 7X
G-------------------------------------|
D----*--------------------------------|
A---5--------*-------*------1-1-1-3---|
E-----------1-------3-----------------|
:
# verse3 #   *=play 6X   #=play 3X   (gone, but not forgotten...)
G-|--------------2X---------------|-----------------------------------|
D-|--*-------*-------*-------#---#|--*-------*-------*-------#--------|
A-|-1-------3-------5-------5---3-|-1-------3-------8-------8---8-7---|
E-|-------------------------------|-----------------------------------|
:
# bridge2 #   *=play 6X   (Carol Anne stands alone in the school yard...)
G-----------------------------------------------------------------------|
D----*---*-------*---*---*-------*---*---*-------*---*---*---*---*------|
A---5---1----*--0---5---1----*--3---5---1----*--0---5---1---0---0---5\\--|
E-----------1---------------1---------------1---------------------------|
:
# solo-background #   !play all notes 6X!
G---------------------------------------------------------------|
D---------------------------------------------------------------|
A---1-------3-------0-------1---------------0-------0-------5---|
E-----------------------------------3---------------------------|
:
# verse4 #   !play all notes 6X!   (In the darkness...)                 >
G----------------------------------------------------------------------->
D----------------------------------------------------------------------->
A---1-------3-------0-------1---------------0-------0-------3-------3--->
E-----------------------------------3----------------------------------->
>verse4
>---------------|
>---------------|
>---1-------3---|
>---------------|
:


NOFX albums
2003 War on Errorism
2000 Pump Up the Valuum
1997 So Long And Thanks For All The Shoes
1996 Heavy Petting Zoo
1995 I Heard They Suck Live!!
1994 Punk in Drublic
1993 The Longest Line
1993 White Trash, Two Heebs & A Bean
1991 Ribbed
1989 S & M Airlines
White Trash, Two Heebs & A Bean tabs
01Soul Doubt tabbass tab
02Stickin In My Eye tabbass tab
03Bob tabbass tab
04You're Bleeding tabbass tab
05Straight Edge tabbass tab
06Liza & Louise tabbass tab
07The Bag tabbass tab
08Please Play This Song On The Radio tabbass tab
09Warm tabbass tab
10I Wanna Be Your Baby tabbass tab
11Johnny Appleseed tabbass tab
12She's Gone tabbass tab
13Buggley Eyes tabbass tab

 

1