Search tabs:
Browse artists: 0-9 | A | B | C | D | E | F | G | H | I | J | K | L | M | N | O | P | Q | R | S | T | U | V | W | X | Y | Z
/ NOFX / White Trash, Two Heebs & A Bean (1993) / Soul Doubt bass tab

SOUL DOUBT by NOFX. Album : White trash, two heebs and a bean (1992)      1/2
Quite a hard one!
Tabbed By Glen
:
# intro #    %=pause
G----------------------------------------------------------------|
D----------------------------------------------------------------|
A----------------------------------------------------------------|
E---0-0-0-%%%%%%%%%%%-0-0----------------0---0-%%%%%%%%%%%-0-0---|
:
# intro2 #    *=play 8X                                              >
G-------------------------------------------------------------------->
D-------------------------------------------------------------------->
A-----7-7-7-5-5-5-5-----7---4------------7-7-7-5-5-5-5--------------->
E---0---------------7-----0---3--5-----0---------------7---3--5--7--->
>intro2
>--------------------------------------------------------------------|
>--------------------------------------------------------------------|
>-----7-7-7-5-5-5-5-----7---4------------7-7-7-5-5-5-5------*-----*--|
>---0---------------7-----0---3--5-----0---------------7---3-----5---|
:
# verse # X2    !second time without last note!
G----------------------------------------------------------------|
D----------------------------------------------------------------|
A---------------------------------------------------5--4--5--4---|
E---0-----0--0------0-----0--0------0-----0--0-------------------|
:
# verse2 # X3
G---|---------------|---------------|---------------|-----------------|
D---------------------------------------------------------------------|
A---7-5-7-5-5-4-5-4-5-4-5-4-5-4-5-4-5-4-5-4-5-4-5-4-7-5-7-5-5-4-5-4---|
E---------------------------------------------------------------------|
:
# verse3 #        %=pause     *=play 6X                                      >
G---------------------------------------------------------------------------->
D---------------------------------------------------------------------------->
A-------------------------------------------------------------------7-------->
E---3-3-3-5-5-5-0-----0--0------3-3-3-5-5-5-7-7-7---3---0-0-%-5-5-7---3-5-5-%>
>verse3                                                                     >
>--------------------------------------------------------------------------->
>------------------------------------------------------------------------*-->
>-------7-0-3--3-%-7-7-5------------------7-------------7-----------7-0-3--->
>-5-5-7------------------7-3--0-0-%-5-5-7---3-0-%-5-5-7---3-5-%-5-5--------->
>verse3
G----------------------------------------------------------------------------|
D-------------------------------------------------*-------------------*------|
A-----%-7-7-5------------------7-------------7---3-----*----*----*---3-----*-|
E---0---------7-3--0-0-%-5-5-7---3-5-%-5-5-7---5------3----2----0---------3--|
:
# heavy-riff #    X4
G-----------------------------------------|
D-----------------------------------------|
A-----------------------------------------|
E---0-0-3-0-3-0-0-0-0-0-0-0-0-6-3-3-3-5---|
:
# verse4 # X2 !play all notes 6X!  (She doesn't fit into the slipper...)
G-------------------------------|
D-------------------------------|
A---7-------3---------------5---|
E-------------------3-----------|
:
# verse5 #        (Her eyes meet mine...)                            >
G-------------------------------------------------------------------->
D-------------------------------------------------------------------->
A-----7-7-7-5-5-5-5-----7---4------------7-7-7-5-5-5-5--------------->
E---0---------------7-----0---3--5-----0---------------7---3--5--7--->
>>>>>>>>>>>>>>>>to next page...
:
:
SOUL DOUBT                                                                2/2
:
>verse5
>-------------------------------------------------------------------->
>-------------------------------------------------------------------->
>-----7-7-7-5-5-5-5-----7---4------------7-7-7-5-5-5-5--------------->
>---0---------------7-----0---3--5-----0---------------7---3--5--7--->
>verse5
>-----------------|
>-----------------|    > Then play verseX2 (during solo) and verse2X2.
>-------------5---|
>---3--5--7-------|
:
# outro #
G---------------------------------------------------------------------------->
D---------------------------------------------------------------------------->
A-------------------------------------------------------------------7-------->
E---3-3-3-5-5-5-0-----0--0------3-3-3-5-5-5-7-7-7---3---0-0-%-5-5-7---3-5-5-%>
>outro
>---------------------------------------------|
>---------------------------------------------|
>-------7-0-3--3-%-7-7-5--------------5-6-7---|
>-5-5-7------------------7-3--0---------------|


NOFX albums
2003 War on Errorism
2000 Pump Up the Valuum
1997 So Long And Thanks For All The Shoes
1996 Heavy Petting Zoo
1995 I Heard They Suck Live!!
1994 Punk in Drublic
1993 The Longest Line
1993 White Trash, Two Heebs & A Bean
1991 Ribbed
1989 S & M Airlines
White Trash, Two Heebs & A Bean tabs
01Soul Doubt tabbass tab
02Stickin In My Eye tabbass tab
03Bob tabbass tab
04You're Bleeding tabbass tab
05Straight Edge tabbass tab
06Liza & Louise tabbass tab
07The Bag tabbass tab
08Please Play This Song On The Radio tabbass tab
09Warm tabbass tab
10I Wanna Be Your Baby tabbass tab
11Johnny Appleseed tabbass tab
12She's Gone tabbass tab
13Buggley Eyes tabbass tab

 

1