Search tabs:
Browse artists: 0-9 | A | B | C | D | E | F | G | H | I | J | K | L | M | N | O | P | Q | R | S | T | U | V | W | X | Y | Z
/ NOFX / White Trash, Two Heebs & A Bean (1993) / Warm bass tab

NOFX "Warm"
By Jordan Moffitt
worthlivingfor@hotmail.com
:
# intro #   *=play 3X  #=play 8X   "=play 5-6X    *   *   *   *   *   *  >
G------|-------6X------|----------------------|-57--47--77--97--57--47--->
D------|---------------|-#-------#-------#----|-------------------------->
A------|---------------|0-------0-------0-----|-------------------------->
E---7\\-|5-3-5-33-32-3-2|----------------------|-------------------------->
>intro                                                                 >
>---------------------------------------------------------------------->
>--------------------------5-5--------------------------*-----------"-->
>----"--20--"--505-"--757-------"--20--"--505-"-----*--3----#------5--->
>---0-----40------0------------0-----40------0-----1-------0----------->
>intro
>-----------------------------------------------------------------------|
>----------------------------"------------------------5-4-5----------"--|
>----#-------"-------#------5--------#------0-0--------------"------3---|
>---0-------1-------0---------------0-----------------------1-----------|
:
# verse #      *=play 6X     (I'm sitting in the corner...)
G-|------------2X-------------------------|-----------------------------|
D-|-----------------5-4-5------------*----|--*---------------*-------*--|
A-|--------------------------*------3-----|-0--------*------5-------0---|
E-|-5-3-5-33-32-3-2---------1-------------|---------3-------------------|
:
# bridge # 1:07      *=play 6X      %=pause    #=play 12X                    >
G---------------------------------------------------------------------------->
D----------------------*-----------------------------------------------*-----*
A----*-----*-----*---%5------*-----*-----*-----*-----*-----*-----*---%5----%5>
E---2-----3-----0-----------2-----3-----5-----5-----2-----3-----0------------>
>bridge                                                                   >
>-|-----------------------2X----------------------|----------------------->
>-|--------------*-----*-----------------*-----*--|--*-----*-------------->
>-|--*-----*----2-----2------*-----*----5-----5---|-0-----0------*-----*-->
>-|-2-----0-----------------2-----3---------------|-------------0-----0--->
>bridge       |(Sit back and...)      |(Implanted images...)
>-------------|-----------2X----------|--------------------------------------|
>-------------|--*-----*--------------|--*-----*--------------*-----*--------|
>----*-----*--|-5-----0------*-----*--|-5-----0------*-------5-----0------#--|
>---3-----3---|-------------0-----3---|-------------0-----320------------3---|
:
# solo-bg #   *=play 6X
G----------------------------------------------------------------------------|
D---5-4-5-4--*------5-4--------------*----------------------5-4--------------*
A-----------0-----------5----*------3---------------------------5----*------3|
E---------------------------1---------------5-3-5-33-32-3-2---------1--------|
:
# verse2 #      *=play 6X     (One more time Ho-Jo...)                       >
G--------------2X------------------------------------------------------------>
D-------------------5-4--------------*----------------------5-4-5------------*
A-----------------------5----*------3--------------------------------*------3>
E---5-3-5-33-32-3-2---------1---------------5-3-5-33-32-3-2---------1-------->
>verse2
>--------------2X-------------------------------------------------------|
>-------------------5-4--------------*-------*---------------*-------*--|
>-----------------------5----*------3-------0--------*------5-------0---|
>---5-3-5-33-32-3-2---------1-----------------------3-------------------|
:
>>>>>>>>>>>>to next page.........
:
:
:
:
:
:
:
:
:
WARM                                                                      2/2
:
# outro #   #=play 8X   *=play 6X                                         >
G--|-------4X------|------------------------------------------------------>
D--|---------------|7-5---------------------5-4---------------------4-3--->
A--|---------------|------------------------------------------------------>
E--|5-3-5-33-32-3-2|--------5-3-5-33-32-3-2---------5-3-5-33-32-3-2------->
>outro                                                            >
>----------------------------------------------------------------->
>------------------------------*-------------------------------*-->
>----------------------#------5--------#-------*-------#------5--->
>---5-3-5-33-32-3-2-1-0---------------0-------1-------0----------->
>outro
>------------------------------------------|
>----------------------------5----4--------|
>----#------0-0------------------------5---|
>---0--------------------------------------|
:


NOFX albums
2003 War on Errorism
2000 Pump Up the Valuum
1997 So Long And Thanks For All The Shoes
1996 Heavy Petting Zoo
1995 I Heard They Suck Live!!
1994 Punk in Drublic
1993 The Longest Line
1993 White Trash, Two Heebs & A Bean
1991 Ribbed
1989 S & M Airlines
White Trash, Two Heebs & A Bean tabs
01Soul Doubt tabbass tab
02Stickin In My Eye tabbass tab
03Bob tabbass tab
04You're Bleeding tabbass tab
05Straight Edge tabbass tab
06Liza & Louise tabbass tab
07The Bag tabbass tab
08Please Play This Song On The Radio tabbass tab
09Warm tabbass tab
10I Wanna Be Your Baby tabbass tab
11Johnny Appleseed tabbass tab
12She's Gone tabbass tab
13Buggley Eyes tabbass tab

 

1