Search tabs:
Browse artists: 0-9 | A | B | C | D | E | F | G | H | I | J | K | L | M | N | O | P | Q | R | S | T | U | V | W | X | Y | Z
/ Overkill / From the Underground and Below (1997) / I'm Alright bass tab

drop d

G||------------------|------------------|------------------|------------------|
D||------------------|------------------|------------------|------------------|
A||------------------|------------------|------------------|------------------|
D||------------------|------------------|------------------|------------------|



------------------|-------------------|----------------------------|
------------------|-------------------|----------------------------|
------------------|-------------------|----------------------------|
------------------|--------------5/---|--0--0--1-3-1--0--0--1-3-1--|



---------------------------|----------------------------|-------------------|
---------------------------|----------------------------|-------------------|
---------------------------|----------------------------|-------------------|
--0--0--1-3-1--0--3--5--1--|--0--0--1-3-1--0--0--1-3-1--|--0----------------|



----------------------------|---------------------------|
----------------------------|---------------------------|
----------------------------|---------------------------|
--0--0--1-3-1--0--0--1-3-1--|--0--0--1-3-1--0--3--5--1--|



----------------------------|---------------------------|
----------------------------|---------------------------|
----------------------------|---------------------------|
--0--0--1-3-1--0--0--1-3-1--|--0--0--1-3-1--0--3--5--1--|



----------------------------|---------------------------|
----------------------------|---------------------------|
----------------------------|---------------------------|
--0--0--1-3-1--0--0--1-3-1--|--0--0--1-3-1--0--3--5--1--|



----------------------------|--------------------------|
----------------------------|--------------------------|
----------------------------|--------------------------|
--0--0--1-3-1--0--0--1-3-1--|--0--0--0--0--0--0--0--0--|



----------------------------|---------------------------|
----------------------------|---------------------------|
----------------------------|---------------------------|
--0--0--1-3-1--0--0--1-3-1--|--0--0--1-3-1--0--3--5--1--|



----------------------------|---------------------------|
----------------------------|---------------------------|
----------------------------|---------------------------|
--0--0--1-3-1--0--0--1-3-1--|--0--0--1-3-1--0--3--5--1--|



----------------------------|---------------------------|
----------------------------|---------------------------|
----------------------------|---------------------------|
--0--0--1-3-1--0--0--1-3-1--|--0--0--1-3-1--0--3--5--1--|



----------------------------|--------------------------|
----------------------------|--------------------------|
----------------------------|--------------------------|
--0--0--1-3-1--0--0--1-3-1--|--0--0--0--0--0--0--0--0--|



-------------------------|--------------------------|-------------------------|
-------------------------|--------------------------|-------------------------|
-------------------------|--------------------------|-------------------------|
--0--3--6--5----0--3--5--|--0--3--6--5--0--0--0--0--|--0--3--6--5----0--3--5--|



------------------------|-------------------------|--------------------------|
------------------------|-------------------------|--------------------------|
------------------------|-------------------------|--------------------------|
--0--3--6--5----3---1---|--0--3--6--5----0--3--5--|--0--3--6--5--0--0--0--0--|



-------------------------|--------------|------------------|------------------|
-------------------------|--------------|------------------|------------------|
-------------------------|--------------|------------------|------------------|
--0--3--6--5----0--3--5--|--0--3--6--5--|------------------|------------------|



------------------|--------------------------|--------------------------|
------------------|--------------------------|--------------------------|
------------------|--------------------------|--------------------------|
------------------|--0--0--0--0--0--3--2--1--|--0--6--0--5--0--0--3--5--|



--------------------------|--------------------------|
--------------------------|--------------------------|
--------------------------|--------------------------|
--0--6--0--5--0--0--3--5--|--0--6--0--5--0--0--3--5--|



--------------------------|--------------------------|----------------------|
--------------------------|--------------------------|----------------------|
--------------------------|--------------------------|----------------------|
--0--6--0--5--0--0--3--5--|--0--6--0--5--0--0--3--5--|--0--0------0--0------|



----------------------------|---------------------------|
----------------------------|---------------------------|
----------------------------|---------------------------|
--0--0--1-3-1--0--0--1-3-1--|--0--0--1-3-1--0--3--5--1--|



----------------------------|---------------------------|
----------------------------|---------------------------|
----------------------------|---------------------------|
--0--0--1-3-1--0--0--1-3-1--|--0--0--1-3-1--0--3--5--1--|



----------------------------|---------------------------|
----------------------------|---------------------------|
----------------------------|---------------------------|
--0--0--1-3-1--0--0--1-3-1--|--0--0--1-3-1--0--3--5--1--|



----------------------------|--------------------------|
----------------------------|--------------------------|
----------------------------|--------------------------|
--0--0--1-3-1--0--0--1-3-1--|--0--0--0--0--0--0--0--0--|



----------------------------|---------------------------|
----------------------------|---------------------------|
----------------------------|---------------------------|
--0--0--1-3-1--0--0--1-3-1--|--0--0--1-3-1--0--3--5--1--|



----------------------------|---------------------------|
----------------------------|---------------------------|
----------------------------|---------------------------|
--0--0--1-3-1--0--0--1-3-1--|--0--0--1-3-1--0--3--5--1--|



----------------------------|---------------------------|
----------------------------|---------------------------|
----------------------------|---------------------------|
--0--0--1-3-1--0--0--1-3-1--|--0--0--1-3-1--0--3--5--1--|



----------------------------|--------------------------|
----------------------------|--------------------------|
----------------------------|--------------------------|
--0--0--1-3-1--0--0--1-3-1--|--0--0--0--0--0--0--0--0--|



-------------------------|--------------------------|-------------------------|
-------------------------|--------------------------|-------------------------|
-------------------------|--------------------------|-------------------------|
--0--3--6--5----0--3--5--|--0--3--6--5--0--0--0--0--|--0--3--6--5----0--3--5--|



------------------------|-------------------------|--------------------------|
------------------------|-------------------------|--------------------------|
------------------------|-------------------------|--------------------------|
--0--3--6--5----3---1---|--0--3--6--5----0--3--5--|--0--3--6--5--0--0--0--0--|



-------------------------|--------------|------------------|------------------|
-------------------------|--------------|------------------|------------------|
-------------------------|--------------|------------------|------------------|
--0--3--6--5----0--3--5--|--0--3--6--5--|------------------|------------------|



------------------|--------------------------|--------------------------|
------------------|--------------------------|--------------------------|
------------------|--------------------------|--------------------------|
------------------|--0--0--0--0--0--3--2--1--|--0--6--0--5--0--0--3--5--|



--------------------------|--------------------------|
--------------------------|--------------------------|
--------------------------|--------------------------|
--0--6--0--5--0--0--3--5--|--0--6--0--5--0--0--3--5--|



--------------------------|--------------------------|----------------------|
--------------------------|--------------------------|----------------------|
--------------------------|--------------------------|----------------------|
--0--6--0--5--0--0--3--5--|--0--6--0--5--0--0--3--5--|--0--0------0--0------|



----------------------------|----------------------|----------------------|
----------------------------|----------------------|----------------------|
----------------------------|----------------------|----------------------|
--0--0------3-3-3-3-3-3-3-3-|--0--0------0--0------|--0--0--------3---1---|



----------------------|----------------------------|----------------------|
----------------------|----------------------------|----------------------|
----------------------|----------------------------|----------------------|
--0--0------0--0------|--0--0------3-3-3-3-3-3-3-3-|--0--0------0--0------|



-----------------------|------------------------------|
-----------------------|------------------------------|
-----------------------|------------------------------|
--0--0--------3--2--1--|--0--0-0-0-0--0-0--0-0-0-0--0-|



------------------------------|------------------------------|
------------------------------|------------------------------|
------------------------------|------------------------------|
--0--0-0-0-0--0-0--0-0-0-0--0-|--0--0-0-0-0--0-0--0-0-0-0--0-|



------------------------------|-------------------------------|
------------------------------|-------------------------------|
------------------------------|--2-2-2-2-2-2--2---------------|
--0--0-0-0-0--0-0--0-0-0-0--0-|-----------------0--0-0-0-0--0-|



-------------------------------|-------------------------------|
-------------------------------|-------------------------------|
--2-2-2-2-2-2--2---------------|--2-2-2-2-2-2--2---------------|
-----------------0--0-0-0-0--0-|-----------------0--0-0-0-0--0-|



-------------------------------|-------------------------------|
-------------------------------|-------------------------------|
--2-2-2-2-2-2--2---------------|--2-2-2-2-2-2--2---------------|
-----------------0--0-0-0-0--0-|-----------------0--0-0-0-0--0-|



-------------------------------|-------------------------------|
-------------------------------|-------------------------------|
--2-2-2-2-2-2--2---------------|--2-2-2-2-2-2--2---------------|
-----------------0--0-0-0-0--0-|-----------------0--0-0-0-0--0-|



-------------------------------|----------------------|
-------------------------------|----------------------|
--2-2-2-2-2-2--2---------------|----------------------|
-----------------0--0-0-0-0--0-|--0--0------0--0------|



----------------------------|---------------------------|
----------------------------|---------------------------|
----------------------------|---------------------------|
--0--0--1-3-1--0--0--1-3-1--|--0--0--1-3-1--0--3--5--1--|



----------------------------|---------------------------|
----------------------------|---------------------------|
----------------------------|---------------------------|
--0--0--1-3-1--0--0--1-3-1--|--0--0--1-3-1--0--3--5--1--|



----------------------------|---------------------------|
----------------------------|---------------------------|
----------------------------|---------------------------|
--0--0--1-3-1--0--0--1-3-1--|--0--0--1-3-1--0--3--5--1--|



----------------------------|--------------------------|
----------------------------|--------------------------|
----------------------------|--------------------------|
--0--0--1-3-1--0--0--1-3-1--|--0--0--0--0--0--0--0--0--|



----------------------------|---------------------------|
----------------------------|---------------------------|
----------------------------|---------------------------|
--0--0--1-3-1--0--0--1-3-1--|--0--0--1-3-1--0--3--5--1--|



----------------------------|---------------------------|
----------------------------|---------------------------|
----------------------------|---------------------------|
--0--0--1-3-1--0--0--1-3-1--|--0--0--1-3-1--0--3--5--1--|



----------------------------|---------------------------|
----------------------------|---------------------------|
----------------------------|---------------------------|
--0--0--1-3-1--0--0--1-3-1--|--0--0--1-3-1--0--3--5--1--|



----------------------------|--------------------------|
----------------------------|--------------------------|
----------------------------|--------------------------|
--0--0--1-3-1--0--0--1-3-1--|--0--0--0--0--0--0--0--0--|



-------------------------|--------------------------|-------------------------|
-------------------------|--------------------------|-------------------------|
-------------------------|--------------------------|-------------------------|
--0--3--6--5----0--3--5--|--0--3--6--5--0--0--0--0--|--0--3--6--5----0--3--5--|



------------------------|-------------------------|--------------------------|
------------------------|-------------------------|--------------------------|
------------------------|-------------------------|--------------------------|
--0--3--6--5----3---1---|--0--3--6--5----0--3--5--|--0--3--6--5--0--0--0--0--|



-------------------------|--------------|------------------|------------------|
-------------------------|--------------|------------------|------------------|
-------------------------|--------------|------------------|------------------|
--0--3--6--5----0--3--5--|--0--3--6--5--|------------------|------------------|



------------------|--------------------------|----------------------|
------------------|--------------------------|----------------------|
------------------|--------------------------|----------------------|
------------------|--0--0--0--0--0--3--2--1--|--0--0------0--0------|



----------------------|----------------------|----------------------|
----------------------|----------------------|----------------------|
----------------------|----------------------|----------------------|
--0--0------0--0------|--0--0------0--0------|--0--0------0--0------|



----------------------|----------------------|----------------------|
----------------------|----------------------|----------------------|
----------------------|----------------------|----------------------|
--0--0------0--0------|--0--0------0--0------|--0--0------0--0------|



----------------------|--------------------------|--------------------------|
----------------------|--------------------------|--------------------------|
----------------------|--------------------------|--------------------------|
--0--0------0--0------|--0--6--0--5--0--0--3--5--|--0--6--0--5--0--0--3--5--|



--------------------------|--------------------------|----------------------|
--------------------------|--------------------------|----------------------|
--------------------------|--------------------------|----------------------|
--0--6--0--5--0--0--3--5--|--0--6--0--5--0--0--3--5--|--0--0------0--0------|



------------------|-------------------|------------------|------------------|
------------------|-------------------|------------------|------------------|
------------------|-------------------|------------------|------------------|
--3-3-3-3-3-3-3-3-|--0----------------|------------------|------------------|


Overkill albums
2003 Kill Box 13
1999 Necroshine
1997 From the Underground and Below
1996 The Killing Kind
1994 W.F.O.
1993 I Hear Black
1991 Horrorscope
1989 The Years of Decay
1988 Under the Influence
1987 Taking Over
1985 Feel the Fire
From the Underground and Below tabs
01It Lives tabbass tab
04Genocya tabbass tab
05Half Past Dead tabbass tab
07I'm Alright tabbass tab

 

1