Search tabs:
Browse artists: 0-9 | A | B | C | D | E | F | G | H | I | J | K | L | M | N | O | P | Q | R | S | T | U | V | W | X | Y | Z
/ Overkill / Kill Box 13 (2003) / Damned bass tab

Tuning: C# F# B# E# (half step down)
 p = pulloff
 h = hammeron

The song starts out with just some guitar work (2 times) (with some hi-hats underneath) after
that, all hell breaks loose and D.D plays this:

Riff A (Play twice):
E# |----------------|----------------|----------------|----------------||
B# |----------------|----------------|----------------|----------------||
F# |----------------|----------------|----------------|----------------||
C# |0---3-0-6---5-6-|0---3-0-6-6-5-6-|0---3-0-6---5-6-|3-3-3-3-3-3-3-3-||

Riff B (Play 4 times):
E# |----------------|----------------||
B# |----------------|----------------||
F# |----------------|----------------||
C# |3h4p3h4p3h4p3---|--3--h4p3h4p3---||

  (The verses go as followed: Riff C 4 times, Riff B 4 times, Riff C 4 times)

Riff C:
E# |----------------|----------------||
B# |----------------|----------------||
F# |----7-------7---|----7-----------||
C# |0-0---0-0-0---0-|0-0---0-0-3-5-3-||

(1st verse)
 Took a little time, before we're done to love me
 Took a little more than I ever did before
 Took your bad intentions
 Took all your excite
 And if I didn't mention
 Took my inhuman rights
 It's a heavy-weight title bout
 The more I live the more I find out

(I dont know how to word this part...sorry)
For the chorus...return to Riff A again, play it 4 times, with the only exception that
the last time you play it dont play the ||3-3-3-3-3-3-3-3-|| but go to "Fill 1"

Fill 1:
E# |----------------|----------------|----------------|----------------||
B# |----------------|----------------|----------------|----------------||
F# |----------------|----------------|----------------|----------------||
C# |-3-3-----3-3----|3-3-----3-3-----|3-3-----3-3-----|3---------------||

 (Chorus)
 ***ed, for if I love me
 ***ed, for if I care
 ***ed, for all the make you feel betters
 As the ***ed scream this ain't fair
 ***ed, for if I love me
 ***ed, for if I care
 ***ed, for all the make you feel betters
 As the ***ed scream this ain't fair

Then the second verse starts, just repeat the verse sequence again (Riff C 4 times, Riff
B 4 times, then Riff C. The Chorus after that is actually just Riff A 4 times, so no Fill
1 this time! :)

 (2nd verse)
 Had a little time before I went and ***ed me
 Had a little trouble, getting up off the floor
 Had you're I'm not like that
 Had a hand up in my face
 Head bobbing like a wet rat
 No love for the human race
 The more fuel, the farther I go
 The more I live the more I...
 No-no-no

 (Chorus)
 ***ed, for if I love me
 ***ed, for if I care
 ***ed, for all the make you feel betters
 As the ***ed scream this ain't fair
 ***ed, for if I love me
 ***ed, for if I care
 ***ed, for all the make you feel betters
 As the ***ed scream this ain't fair

The bridge starts out with 2 measures for guitar only, after that, the bass enters and
plays

Riff D: (Play 6 times, vocals enter 3rd time):
E# |----------------|----------------||
B# |----------------|----------------||
F# |----------------|----------------||
C# |6-6-----6-6-----|6-6-----6-6-----||

(Bridge)
 ***ed if I do and ***ed if I don't
 ***ed if I will and ***ed if I won't
 ***ed for your screamin' that this ain't fair
 God *** your screamin', I don't care

Underneath the solo, the bass plays this:

Riff E (Play twice):
E# |----------------|----------------||
B# |----------------|----------------||
F# |----------------|----------------||
C# |0-0-0-1---0---0-|0-0-1---0-0-1---||

E# |----------------|----------------||
B# |----------------|----------------||
F# |----------------|----------------||
C# |0-0-0-1---0---0-|3-3-3-3-3-3-3-3-||

Basically, you return to the beginning of the song now. Play Riff B 4 times and then play
Riff C 4 times. But instead of playing Riff B 4 times, play it 3 1/2 times, leaving out the
"h4p3". The Chorus is the same as the first Chorus again; Riff A 4 times but Fill 1 again
the last time.

(3rd verse)
 Took a little time before you tried to *** me
 Made a little spot for you right there, on the floor
 So *** your good intentions
 *** your human rights
 *** your finger in my face
 This time I'm gonna bite

 (Chorus)
***ed, for if I love me
***ed, for if I care
***ed, for all the make you feel betters
As the ***ed scream this ain't fair
***ed, for if I love me
***ed, for if I care
***ed, for all the make you feel betters
As the ***ed scream this ain't fair

Then the song is over. Easy aint it? Didnt realize that till i tried to transcribe it.
And im sorry for any confusion you may come across. I tried my best to explain it.


Overkill albums
2003 Kill Box 13
1999 Necroshine
1997 From the Underground and Below
1996 The Killing Kind
1994 W.F.O.
1993 I Hear Black
1991 Horrorscope
1989 The Years of Decay
1988 Under the Influence
1987 Taking Over
1985 Feel the Fire
Kill Box 13 tabs
02Damned tabbass tab

 

1