Search tabs:
Browse artists: 0-9 | A | B | C | D | E | F | G | H | I | J | K | L | M | N | O | P | Q | R | S | T | U | V | W | X | Y | Z
/ Overkill / Taking Over (1987) / Powersurge bass tab

G||----------|--------------------------|--------------------------|
D||----------|--------------------------|--------------------------|
A||----------|--3--2--------5--4--------|--------------------------|
E||--0-0-0-0-|--------4--3--------5--4--|--8--6--5--6--6--5--3--5--|



------------------------------|------------------------------|
------------------------------|------------------------------|
------------------------------|------------------------------|
--0-0-0-0-6--5--0-0-0-0-6--5--|--0-0-0-0-6--5--0-0-0-0-3--5--|



------------------------------|--------------------------|
------------------------------|--------------------------|
------------------------------|--6--5--------5-----------|
--0-0-0-0-6--5--0-0-0-0-6--5--|--------6--5-----8--6--8--|



------------------------------|------------------------------|
------------------------------|------------------------------|
------------------------------|------------------------------|
--0-0-0-0-6--5--0-0-0-0-6--5--|--0-0-0-0-6--5--0-0-0-0-3--5--|



------------------------------|--------------------------|
------------------------------|--------------------------|
------------------------------|--6--5--------5-----------|
--0-0-0-0-6--5--0-0-0-0-6--5--|--------6--5-----8--6--8--|



|-------------------------------|------------------------------|
|*------------------------------|------------------------------|
|*------------------------------|------------------------------|
|---0-0-0-0-6--5--0-0-0-0-6--5--|--0-0-0-0-6--5--0-0-0-0-3--5--|



------------------------------|---------------------------||
------------------------------|--------------------------*||
------------------------------|--6--5--------5-----------*||
--0-0-0-0-6--5--0-0-0-0-6--5--|--------6--5-----8--6--8---||



-------------------------------|------------------------------|
*------------------------------|------------------------------|
*------------------------------|------------------------------|
---0-0-0-0-6--5--0-0-0-0-6--5--|--0-0-0-0-6--5--0-0-0-0-3--5--|



------------------------------|------------------------------|
------------------------------|------------------------------|
------------------------------|------------------------------|
--0-0-0-0-6--5--0-0-0-0-6--5--|--0-0-0-0-6--5--0-0-0-0-3--5--|



------------------------------|------------------------------|
------------------------------|------------------------------|
------------------------------|------------------------------|
--0-0-0-0-6--5--0-0-0-0-6--5--|--0-0-0-0-6--5--0-0-0-0-3--5--|



------------------------------|--------------------------|
------------------------------|--------------------------|
------------------------------|--6--5--------5-----------|
--0-0-0-0-6--5--0-0-0-0-6--5--|--------6--5-----8--6--8--|



------------------------------|------------------------------|
------------------------------|------------------------------|
------------------------------|------------------------------|
--0-0-0-0-6--5--0-0-0-0-6--5--|--0-0-0-0-6--5--0-0-0-0-3--5--|



------------------------------|------------------------------|
------------------------------|------------------------------|
------------------------------|------------------------------|
--0-0-0-0-6--5--0-0-0-0-6--5--|--0-0-0-0-6--5--0-0-0-0-3--5--|



------------------------------|------------------------------|
------------------------------|------------------------------|
------------------------------|------------------------------|
--0-0-0-0-6--5--0-0-0-0-6--5--|--0-0-0-0-6--5--0-0-0-0-3--5--|



------------------------------|--------------------------|
------------------------------|--------------------------|
------------------------------|--6--5--------5-----------|
--0-0-0-0-6--5--0-0-0-0-6--5--|--------6--5-----8--6--8--|



-------------------------------|-------------------------------|
-------------------------------|-------------------------------|
--7----------------------------|--5----------------------------|
-------0-0-0-0-0-0-0-0-0-0-0-0-|-------0-0-0-0-0-0-0-0-0-0-0-0-|



-------------------------------|---------------------------|
-------------------------------|---------------------------|
--4----------------------------|--3------------3--2--------|
-------0-0-0-0-0-0-0-0-0-0-0-0-|-------0-0-0-0-------3--2--|



-------------------------------|-------------------------------|
-------------------------------|-------------------------------|
--7----------------------------|--5----------------------------|
-------0-0-0-0-0-0-0-0-0-0-0-0-|-------0-0-0-0-0-0-0-0-0-0-0-0-|



-------------------------------|---------------------------|
-------------------------------|---------------------------|
--4----------------------------|--3------------3--2--------|
-------0-0-0-0-0-0-0-0-0-0-0-0-|-------0-0-0-0-------3--2--|



------------------------------|------------------------------|
------------------------------|------------------------------|
------------------------------|------------------------------|
--0-0-0-0-6--5--0-0-0-0-6--5--|--0-0-0-0-6--5--0-0-0-0-3--5--|



------------------------------|--------------------------|
------------------------------|--------------------------|
------------------------------|--6--5--------5-----------|
--0-0-0-0-6--5--0-0-0-0-6--5--|--------6--5-----8--6--8--|



------------------------------|------------------------------|
------------------------------|------------------------------|
------------------------------|------------------------------|
--0-0-0-0-6--5--0-0-0-0-6--5--|--0-0-0-0-6--5--0-0-0-0-3--5--|



------------------------------|--------------------------|-------------------||
------------------------------|--------------------------|------------------*||
------------------------------|--6--5--------5-----------|------------------*||
--0-0-0-0-6--5--0-0-0-0-6--5--|--------6--5-----8--6--8--|------8--6--5--6---||



---------------------------|--------------------------|
---------------------------|--------------------------|
--3------------3--2--------|--------------------------|
-------0-0-0-0-------3--2--|--0--0--0--0--0--0--0--0--|



-------------------------||---------------------------|
-------------------------||*--------------------------|
-------------------------||*--------------------------|
--0--0--0--0--0--0/-7/---||---0--0--0--6--0--0--5--0--|



-------------------------|--------------------------|
-------------------------|--------------------------|
-------------------------|--------------------------|
--0--6--0--0--5--0--3----|--0--0--0--6--0--0--5--0--|



---------------------------||---------------------------|
--------------------------*||*--------------------------|
--------------------------*||*--------------------------|
--0--6--0--0--8--6--5--6---||---0--0--0--6--0--0--5--0--|



-------------------------|--------------------------|
-------------------------|--------------------------|
-------------------------|--------------------------|
--0--6--0--0--5--0--3----|--0--0--0--6--0--0--5--0--|


                           3x
---------------------------||------------------------------|
--------------------------*||------------------------------|
--------------------------*||------------------------------|
--0--6--0--0--8--6--5--6---||--0-0-0-0-6--5--0-0-0-0-6--5--|



------------------------------|------------------------------|
------------------------------|------------------------------|
------------------------------|------------------------------|
--0-0-0-0-6--5--0-0-0-0-3--5--|--0-0-0-0-6--5--0-0-0-0-6--5--|



------------------------------|------------------------------|
------------------------------|------------------------------|
------------------------------|------------------------------|
--0-0-0-0-6--5--0-0-0-0-3--5--|--0-0-0-0-6--5--0-0-0-0-6--5--|



------------------------------|------------------------------|
------------------------------|------------------------------|
------------------------------|------------------------------|
--0-0-0-0-6--5--0-0-0-0-3--5--|--0-0-0-0-6--5--0-0-0-0-6--5--|



--------------------------|-------------------------------|
--------------------------|-------------------------------|
--6--5--------5-----------|--7----------------------------|
--------6--5-----8--6--8--|-------0-0-0-0-0-0-0-0-0-0-0-0-|



-------------------------------|-------------------------------|
-------------------------------|-------------------------------|
--5----------------------------|--4----------------------------|
-------0-0-0-0-0-0-0-0-0-0-0-0-|-------0-0-0-0-0-0-0-0-0-0-0-0-|



---------------------------|-------------------------------|
---------------------------|-------------------------------|
--3------------3--2--------|--7----------------------------|
-------0-0-0-0-------3--2--|-------0-0-0-0-0-0-0-0-0-0-0-0-|



-------------------------------|-------------------------------|
-------------------------------|-------------------------------|
--5----------------------------|--4----------------------------|
-------0-0-0-0-0-0-0-0-0-0-0-0-|-------0-0-0-0-0-0-0-0-0-0-0-0-|



---------------------------|---------------------------|
---------------------------|---------------------------|
--3------------3--2--------|---------------------------|
-------0-0-0-0-------3--2--|--0--0-0-0--0--0--0--0--0--|



--------------------------|------------------------------|
--------------------------|------------------------------|
--------------------------|------------------------------|
--0--0--0--0--0--0--0--0--|--0-0-0-0-6--5--0-0-0-0-6--5--|



------------------------------|------------------------------|
------------------------------|------------------------------|
------------------------------|------------------------------|
--0-0-0-0-6--5--0-0-0-0-3--5--|--0-0-0-0-6--5--0-0-0-0-6--5--|



--------------------------|------------------------------|
--------------------------|------------------------------|
--6--5--------5-----------|------------------------------|
--------6--5-----8--6--8--|--0-0-0-0-6--5--0-0-0-0-6--5--|



------------------------------|------------------------------|
------------------------------|------------------------------|
------------------------------|------------------------------|
--0-0-0-0-6--5--0-0-0-0-3--5--|--0-0-0-0-6--5--0-0-0-0-6--5--|



--------------------------|------------------------------|
--------------------------|------------------------------|
--6--5--------5-----------|------------------------------|
--------6--5-----8--6--8--|--0-0-0-0-6--5--0-0-0-0-6--5--|



------------------------------|------------------------------|
------------------------------|------------------------------|
------------------------------|------------------------------|
--0-0-0-0-6--5--0-0-0-0-3--5--|--0-0-0-0-6--5--0-0-0-0-6--5--|



------------------------------|------------------------------|
------------------------------|------------------------------|
------------------------------|------------------------------|
--0-0-0-0-6--5--0-0-0-0-3--5--|--0-0-0-0-6--5--0-0-0-0-6--5--|



------------------------------|------------------------------|
------------------------------|------------------------------|
------------------------------|------------------------------|
--0-0-0-0-6--5--0-0-0-0-3--5--|--0-0-0-0-6--5--0-0-0-0-6--5--|



--------------------------|------------------------------|
--------------------------|------------------------------|
--6--5--------5-----------|------------------------------|
--------6--5-----8--6--8--|--0-0-0-0-6--5--0-0-0-0-6--5--|



------------------------------|------------------------------|
------------------------------|------------------------------|
------------------------------|------------------------------|
--0-0-0-0-6--5--0-0-0-0-3--5--|--0-0-0-0-6--5--0-0-0-0-6--5--|



------------------------------|------------------------------|
------------------------------|------------------------------|
------------------------------|------------------------------|
--0-0-0-0-6--5--0-0-0-0-3--5--|--0-0-0-0-6--5--0-0-0-0-6--5--|



------------------------------|------------------------------|
------------------------------|------------------------------|
------------------------------|------------------------------|
--0-0-0-0-6--5--0-0-0-0-3--5--|--0-0-0-0-6--5--0-0-0-0-6--5--|



--------------------------||--------------------------------|
--------------------------||*-------------------------------|
--6--5--------5-----------||*--7----------------------------|
--------6--5-----8--6--8--||--------0-0-0-0-0-0-0-0-0-0-0-0-|



-------------------------------|-------------------------------|
-------------------------------|-------------------------------|
--5----------------------------|--4----------------------------|
-------0-0-0-0-0-0-0-0-0-0-0-0-|-------0-0-0-0-0-0-0-0-0-0-0-0-|


                            3x
----------------------------||------------------------------|
---------------------------*||------------------------------|
--3------------3--2--------*||------------------------------|
-------0-0-0-0-------3--2---||--0-0-0-0-6--5--0-0-0-0-6--5--|



------------------------------|------------------------------|
------------------------------|------------------------------|
------------------------------|------------------------------|
--0-0-0-0-6--5--0-0-0-0-3--5--|--0-0-0-0-6--5--0-0-0-0-6--5--|



----------------------------------|--------------------------|
----------------------------------|--------------------------|
----------3--2--------5--4--------|--------------------------|
--0-0-0-0-------4--3--------5--4--|--8--6--5--6--6--5--3--5--|



-------------------||
-------------------||
-------------------||
--0----------------||


Overkill albums
2003 Kill Box 13
1999 Necroshine
1997 From the Underground and Below
1996 The Killing Kind
1994 W.F.O.
1993 I Hear Black
1991 Horrorscope
1989 The Years of Decay
1988 Under the Influence
1987 Taking Over
1985 Feel the Fire
Taking Over tabs
01Deny the Cross tabbass tab
02Wrecking Crew tabbass tab
03Fear His Name tabbass tab
04Use Your Head tabbass tab
05Fatal If Swallowed tabbass tab
06Powersurge tabbass tab
07In Union We Stand tabbass tab
08Electro-Violence tabbass tab

 

1