Search tabs:
Browse artists: 0-9 | A | B | C | D | E | F | G | H | I | J | K | L | M | N | O | P | Q | R | S | T | U | V | W | X | Y | Z
/ P.O.D. / The Fundamental Elements Of Southtown (1999) / Southtown bass tab

I'm sure of this exept for the parts i indicated


Return to Music X

Music X Bass Tab


P.O.D.
"Southtown"
I'm sure of this exept for the parts i indicated


G--------9-----10-----10--------------------
D-7-10----10----10-----10---88888888     im not sure about this
A-----------------9-----------------------------
D------------------------------------------------

G----------------------------------------------------
D----------------------------------------------------    (this is 100%
correct)
A----------------------------------------------------
D-3-33----3-2-333-777--0-00-0-000-777
              BRIDGE 1
G-------0----------
D----0--------0----
A-0---------------0
D--------------------


              CHORUS
G-------------------------------------------
D------5---------5----------2--------2---


P.O.D. albums
2003 Payable on Death
2001 Satellite
1999 The Fundamental Elements Of Southtown
1996 Brown
The Fundamental Elements Of Southtown tabs
01Greetings tabbass tab
02Hollywood tabbass tab
03Southtown tabbass tab
04Checkin' Levels tabbass tab
05Rock The Party (Off The Hook) tabbass tab
06Lie Down tabbass tab
07Set Your Eyes To Zion tabbass tab
08Lo Siento tabbass tab
09Bullet The Blue Sky tabbass tab
11Image tabbass tab
12Shouts tabbass tab
13Tribal tabbass tab
14Freestyle tabbass tab
15Follow Me tabbass tab
16Outkast tabbass tab

 

1