Search tabs:
Browse artists: 0-9 | A | B | C | D | E | F | G | H | I | J | K | L | M | N | O | P | Q | R | S | T | U | V | W | X | Y | Z
/ Pennywise / Land of the Free? (2001) / Enemy bass tab

===============================================================================================

                                 Pennywise - ENEMY

==============================================================================================

Tabbed by Jerry	
send all corrections etc. to bassadilla@hotmail.com

\\ = Slide Down



Intro

G|---------------|
D|---------------|
A|-2-0-10-9-7\\---|
E|---------------|


Verse pt. 1

G|---------------------------------------|
D|---------------------------------------|
A|-77777777----------22222222-2-0-10-9-7-|
E|----------33333333---------------------|


Verse pt. 2

G|-------------------------------------|
D|-------------------------------------|
A|-77777777----------55555555-22222222-|
E|----------33333333-------------------\\


Bridge to Chorus

G|----------------------------*------------------------------| (only play after
D|----------------------------*------------------------------|  stars on the very last time)
A|-00000000000000-0-222222222-*-22222222-22222222-2-0-10-9-7-|
E|----------------------------*------------------------------|

Chorus

G|------------------------------------|
D|------------------------------------|
A|-77777-7---------22222-2-2-0-10-9-7-|
E|---------33333-3--------------------|


Pennywise albums
2003 From the Ashes
2001 Land of the Free?
2000 Live at the Key Club
1999 Straight Ahead
1997 Full Circle
1995 About Time
1993 Unknown Road
1992 Wild Card/A Word From the Wise
1991 Pennywise
Land of the Free? tabs
02Land of the Free? tabbass tab
03The World tabbass tab
04F**k Authority tabbass tab
05Something Wrong With Me tabbass tab
06Enemy tabbass tab
07My God tabbass tab
08Twist of Fate tabbass tab
09Who's on Your Side tabbass tab
10It's Up to You tabbass tab
11Set Me Free tabbass tab
12Divine Intervention tabbass tab
13WTO tabbass tab
14Anyone Listening tabbass tab

 

1