Search tabs:
Browse artists: 0-9 | A | B | C | D | E | F | G | H | I | J | K | L | M | N | O | P | Q | R | S | T | U | V | W | X | Y | Z
/ Pennywise / Land of the Free? (2001) / Set Me Free bass tab

-------------------------------------------------------------------------------------------------

                             Pennywise - SET ME FREE

-------------------------------------------------------------------------------------------------

Tabbed by Jerry
Send corrections, requests etc. to bassadilla@hotmail.com

\\ = slide down
/ = slide up
~ = let note ring

Intro

G|---------------------
D|---------------------
A|-----5\\-----------5~-
E|-111----------111----


Riff 1

G|-------------------
D|-------------------
A|-555----3----------
E|-----11---333-1111-


Verse
G|-------------------------------------*-----------------------------
D|-------------------------------------*-----------------------------
A|-55555555----------33333333----------*-55555555--------------------
E|----------11111111----------33333333-*----------11111111-333333333-



Chorus

G|-----------------------------------
D|-----------------------------------
A|-5353533----------5353533-----3333-
E|---------111-3333---------555------

G|----------------------------
D|----------------------------
A|-5353533----------53535-8-5-
E|---------111-3333-----------


Post Chorus

G|----------------------------
D|----------------------------
A|----------------------------
E|-1111111111111111-333333333-


Fill

G|------------------
D|------8-----------
A|-8-10---10-8------
E|-------------10-8-


Bridge To Bass Solo (Last Verse)

G|----------------------------------------------------------------------
D|----------------------------------------------------------------------
A|-5-555555--------3-333333----------5-555555----------3-333333/7777777-
E|----------111111----------3333333----------1111111--------------------


Pennywise albums
2003 From the Ashes
2001 Land of the Free?
2000 Live at the Key Club
1999 Straight Ahead
1997 Full Circle
1995 About Time
1993 Unknown Road
1992 Wild Card/A Word From the Wise
1991 Pennywise
Land of the Free? tabs
02Land of the Free? tabbass tab
03The World tabbass tab
04F**k Authority tabbass tab
05Something Wrong With Me tabbass tab
06Enemy tabbass tab
07My God tabbass tab
08Twist of Fate tabbass tab
09Who's on Your Side tabbass tab
10It's Up to You tabbass tab
11Set Me Free tabbass tab
12Divine Intervention tabbass tab
13WTO tabbass tab
14Anyone Listening tabbass tab

 

1