Search tabs:
Browse artists: 0-9 | A | B | C | D | E | F | G | H | I | J | K | L | M | N | O | P | Q | R | S | T | U | V | W | X | Y | Z
/ Pennywise / Land of the Free? (2001) / Something Wrong With Me bass tab

Song:Something Wrong With Me

Band:Pennywise

Album:Land Of The Free?



Intro/Post Chorus:

|------------------------------------------------x2
|---------x2-------------------------------------
|-3---5-----------333333---------5555555---------
|1--3---5--111111---------333333---------5555555-


Verse

|-----------------------------------------------------------------x2
|---------------x2------------------------------------------------
|--0--3------5------0000000---333333------------55555555----------
|--------3------5----------------------3333333-------------5555555
then play the intro


Prechorus
|-------------------------
|-------------------------
|----------------77777----
|-1111----33333-----------

Chorus

|----------------------------------x2
|-----------------------------------
|--------3333---5555-----------------------
|--555---------------5555-----------------

Play the verse a couple of time under the solo
Play the intro/postchorus
end on a A.


Pennywise albums
2003 From the Ashes
2001 Land of the Free?
2000 Live at the Key Club
1999 Straight Ahead
1997 Full Circle
1995 About Time
1993 Unknown Road
1992 Wild Card/A Word From the Wise
1991 Pennywise
Land of the Free? tabs
02Land of the Free? tabbass tab
03The World tabbass tab
04F**k Authority tabbass tab
05Something Wrong With Me tabbass tab
06Enemy tabbass tab
07My God tabbass tab
08Twist of Fate tabbass tab
09Who's on Your Side tabbass tab
10It's Up to You tabbass tab
11Set Me Free tabbass tab
12Divine Intervention tabbass tab
13WTO tabbass tab
14Anyone Listening tabbass tab

 

1