Search tabs:
Browse artists: 0-9 | A | B | C | D | E | F | G | H | I | J | K | L | M | N | O | P | Q | R | S | T | U | V | W | X | Y | Z
/ Phantom Planet / The Guest (2002) / Always on My Mind bass tab

Phantom Planet – Always On My Mind
Tabbed by: sinniecoyote


Verse 1
G|------------------------------------------------------------------------------------|
D|--------------4-----7-9-7--7-6--6-4--4---------------------------------141414141414-|
A|---3-5-5--5-7----5h7-------------------7--7-5--5-4--4--------597-77-7/--------------|
E|-5----------------------------------------------------7--75h7-----------------------|

Chorus 1
G|-----------------------------7-7-----------------7-7-----|
D|-7-------------4--4-6-7\---------9-7-7---5h7-7-------9-7-|
A|----4-5-7--7-8-------------5----------9p7------5---------|
E|---------------------------------------------------------|

Verse 2
G|-----------------------------------------------------------------------|
D|-/12--------------4--4---7-9-7------------9-7------4--4---7-9-7--4-----|
A|-----14\-/12--5-7-----5h7-------4-5-7--5h7-----5-7-----5h7---------7---|
E|---------------------------------------------------------------------5-|

G|--------------------------------------------------------------------------------|
D|--------------4-----7-9-7--7-6--6-4--4----------------------------------------9-|
A|---3-5-5--5-7----5h7-------------------7--7-5--5-4--4--------597-77-7---5-7--7--|
E|-5----------------------------------------------------7--75h7---------7---------|

Chorus 2
G|---------------------------------7-7-----------------7-7-------------------------4--4-------------7-7------------7-7----|
D|--7-------------4--4-6-7--7----------9-7-7---5h7-7-------9-7----------4-6-7--7-8------7-4--44-2-------9-7-77---------9--|
A|-7---4-5-7--7-8-------------7-5-----------9p7------5-----------7-8-9----------------------------5------------7-5--------|
E|--------------------------------------------------------------7---------------------------------------------------------|
Rest for awhile here...

Bridge
G|--------------------------------------------------------------------6----------|
D|------------------4--4---7-9-7-7-------------7-9-7-7-----4--4---7-9---9-7------|
A|-/14\/14\-5-5-5-7-----5-7--------4-5-7--7-5-7--------5-7-----5-7----------7----|
E|----------------------------------------------------------------------------5--|
Rest again here...

Verse 3
G|------------------------------------------------------9--9-|
D|-7--7-6--6-4--4------------------------------------9-------|
A|----------------7--7-5--5-4--4--------597----5-7-/7--7--7--|
E|-------------------------------7--75h7-----7---------------|

Chorus 3/Ending
G|----------------------------7-7---------------7-7------------------------4--4-------------7-7------------7-7-------------|
D|-7---5--------4--4-6-7\---------9-7-7---5h7-------9-7-7-------4-6-7--7-8------7-4--44-2-------9-7--7-74------9-7-7---5h7-|
A|-------7--7-8-------------5----------9p7----5----------7-8-9----------------------------5--------------5----------9p7----|
E|-------------------------------------------------------------------------------------------------------------------------|

G|---7-7-----------------7-7------------------------------------------------|
D|-------9-7-9h1197----------97-----6--7----9-------------------------------|
A|-5---------------98765--------9----------------9----5---7------5---7-8-9--|
E|----------------------------------------------------------5---------------|

Actually there are some parts that I'm not too sure about it, but I tab this as best as I can. Enjoy it!


Phantom Planet albums
2004 Phantom Planet
2002 The Guest
1998 Phantom Planet Is Missing
The Guest tabs
01California tabbass tab
02Always on My Mind tabbass tab
03Lonely Day tabbass tab
04One Ray of Sunlight tabbass tab
05Anthem tabbass tab
07Turn Smile Shift Repeat tabbass tab
08Hey Now Girl tabbass tab
10All Over Again tabbass tab
11Wishing Well tabbass tab
12Something Is Wrong tabbass tab
15California (live) tabbass tab

 

1