Search tabs:
Browse artists: 0-9 | A | B | C | D | E | F | G | H | I | J | K | L | M | N | O | P | Q | R | S | T | U | V | W | X | Y | Z
/ Phantom Planet / The Guest (2002) / Lonely Day bass tab

Phantom Planet - Lonley day
Tabbed By: Hollister16
Email: Superman1161@aol.com

Tuning: Standard (E A D G)

Tabbed by: Jason

I did the guitar tab for this song. So i thought I'd do the
bass. Enjoy.

Intro:
G|----9------------|
D|-9-----7---11-9--|
A|-----------------|
E|-----------------|

Verse 1:
G|-----------------------------------------------------------------------|
D|-7-7------------7h9-7-7----------------------------7h9-7-7-------------|
A|----4575-5-5-7h9-------4575-5-5-4-2----4575-5-5-7h9-------4575-5-5-4-2-|
E|------------------------------------5-5--------------------------------|

G|--------------------------------------------------------------------------|
D|-----------------7h9-7-7------------------------------7h9-7-7-------------|
A|-----4575-5-5-7h9-------4575-5-5-4-2----4575-5-5-5-7h9-------4575-5-5-4-2-|
E|-5-5---------------------------------5-5----------------------------------|

G|-------------------------------------|
D|------------------7h9-7-7---7-7-77-7-|
A|----4575-5-5-5-7h9-------457---------|
E|-5-5---------------------------------|

G|--------------------------------------------------------------------------|
D|---9-9--7----------7h9-7-7-----------9-9--7----------7h9-7-7-77-7-7-/19\--|
A|---------97-7-7-7h9-------457--------------97-7-7-7h9---------------------|
E|-7---------------------------555-5-7--------------------------------------|

Chorus 1:
G|-------------------------------------------------------|
D|-------------------------------------------------------|
A|----/9--------2-2-2/14-2-2-2----/9--------2-2-2/14-2-2-|
E|-2-2--22-2-2-----------------2-2--22-2-2---------------|

G|-4-6-7----7--7--------------------7--9-7-----|
D|-------7h9--9-7-7--7---------/9-9---------9--|
A|-------------------------7-7-----------------|
E|---------------------0-0---------------------|

Verse 2:
G|------------------------------------------------------------------------|
D|-7-7------------7h9-7-7----------------------------7h9-7-7---------11-9-|
A|----4575-5-5-7h9-------4575-5-5-4-2----4575-5-5-7h9-------4575-5-5------|
E|------------------------------------5-5---------------------------------|

G|----------------------------------------------------------------------|
D|-7-7------------7h9-7-7----------------------------7h9-7-7---7-7-77-7-|
A|----4575-5-5-7h9-------4575-5-5-4-2----4575-5-5-7h9-------457---------|
E|------------------------------------5-5-------------------------------|

G|---------------------------|
D|---9-9--7----------7h9-7-7-|
A|---------97-7-7-7h9--------|
E|-7-------------------------|

Chorus 2:
G|-------------------------------------------------------|
D|-------------------------------------------------------|
A|----/9--------2-2-2/14-2-2-2----/9--------2-2-2/14-2-2-|
E|-2-2--22-2-2-----------------2-2--22-2-2---------------|

G|-4-6-7----7--7--------------------7--9-7-------|
D|-------7h9--9-7-7--7---------/9-9---------9-7--|
A|-------------------------7-7-------------------|
E|---------------------0-0-----------------------|

Outro:
G|---------------------------------------------------------|
D|-7-7-7-7-7-7-7-7-7-7-7-7-7-7-7-7-7---9-9--7----------7h9-|
A|-------------------------------------------97-7-7-7h9----|
E|-----------------------------------7---------------------|

G|------------------------------------------------42---------------------234-4--42---|
D|---4-4--2----------2h4------------------42--------42------------------4---------42-|
A|---------42-2-2-2h4----5-55--7-7-77--------42-22-----5-55--7-7-77------------------|
E|-2-----------------------------------2-2---------------------------2-2-------------|

G|--------------------------------------------|
D|--------------------------------------------|
A|-5-55--7-7-77--9-99--2-2-2/14--5-55--7-7-77-|
E|--------------------------------------------|

G|------------------------------------------------------------------------------|
D|----------------7h9-7-7--------------------------------7h9-7-7----------------|
A|----4575-5-5-7h9-------457-5-5-5-4-2-----4575-5-5-5-7h9-------4575-5-5-4-2-0--|
E|-5-5----------------------------------5-5-------------------------------------|
...............................
Thats it. This band deserves much more credit than what
they get.


Phantom Planet albums
2004 Phantom Planet
2002 The Guest
1998 Phantom Planet Is Missing
The Guest tabs
01California tabbass tab
02Always on My Mind tabbass tab
03Lonely Day tabbass tab
04One Ray of Sunlight tabbass tab
05Anthem tabbass tab
07Turn Smile Shift Repeat tabbass tab
08Hey Now Girl tabbass tab
10All Over Again tabbass tab
11Wishing Well tabbass tab
12Something Is Wrong tabbass tab
15California (live) tabbass tab

 

1