Search tabs:
Browse artists: 0-9 | A | B | C | D | E | F | G | H | I | J | K | L | M | N | O | P | Q | R | S | T | U | V | W | X | Y | Z
/ Phantom Planet / The Guest (2002) / Turn Smile Shift Repeat bass tab

Artist: Phantom Planet
Song: Turn, Smile, Shift, Repeat
Tabbed By: AurallyFixated
E-mail: aurally_fixated@hotmail.com


Verse

G --------------
D --------------
A ---3-5-------2
E -3------5--5--

G ----------------
D ----------------
A ---3-5---------2
E -3------5--3-5--

Pre-Chorus

G -------------0-4--2
D -2---0-4---4-------
A ---2---------------
E -------------------

G -16-14-12-9---
D ------------9-
A --------------
E --------------

G -16-14-12-9-9
D -------------
A -------------
E -------------

Verse x2

G ---------------0-4--2
D -2---0-4-2---4-------
A ---2-----------------
E ---------------------

G -12-9---
D ------9-
A --------
E --------

Pre-Chorus

G ---------------0-4--2
D -2---0-4-2---4-------
A ---2-----------------
E ---------------------

G -12-9----------
D ------9---9-7-4
A ---------------
E ---------------

G ---------------0-4--2
D -2---0-4-2---4-------
A ---2-----------------
E ---------------------

G -14-12-9--
D ---------9
A ----------
E ----------

Chorus x2

G ------------------
D --------0000-11-44
A -3-0000-----------
E ------------------

G -----------
D -2--2-0----
A --------3-2
E -----------

Bridge

G ---------0--0---------
D -2---0-4----------2---
A ---2----------0-2---3-3
E ----------------------

G -------2------
D ---0-2-----0-2
A -3-------3----
E --------------

G ---------0--0-2-4-95-5
D -2---0-4--------------
A ---2------------------
E ----------------------

G -------2------
D ---0-2-----0-2
A -3-------3----
E --------------

Pre-Chorus

G --------
D -2---0-2
A ---3----
E --------

G --------
D --------
A -2--0--2
E --------

Chorus x2

G ------------------
D --------0000-11-44
A -3-0000-----------
E ------------------

G -----------
D -2--2-0----
A --------3-2
E -----------

Outro (there might be a bit of variation, but it holds pretty constant to the end )

G -------------0-4--2
D -2---0-4---4-------
A ---2---------------
E -------------------

G -16-14-12-9---
D ------------9-
A --------------
E --------------

G -16-14-12-9-9
D -------------
A -------------
E -------------


Phantom Planet albums
2004 Phantom Planet
2002 The Guest
1998 Phantom Planet Is Missing
The Guest tabs
01California tabbass tab
02Always on My Mind tabbass tab
03Lonely Day tabbass tab
04One Ray of Sunlight tabbass tab
05Anthem tabbass tab
07Turn Smile Shift Repeat tabbass tab
08Hey Now Girl tabbass tab
10All Over Again tabbass tab
11Wishing Well tabbass tab
12Something Is Wrong tabbass tab
15California (live) tabbass tab

 

1