Search tabs:
Browse artists: 0-9 | A | B | C | D | E | F | G | H | I | J | K | L | M | N | O | P | Q | R | S | T | U | V | W | X | Y | Z
/ / / bass tab

Band: Phantom Planet
Song: Badd Business
Tabbed by: Luke Burba

I've been looking for a tab for this song cause there's some hott bass in it,
but i haven't been able to find it so i tabbed it out myself. Enjoy.

Intro/1st Verse                                                                      JUST..BADD..BUS...INESS!!
G|----------------------------------------|x2  G|---------------------------------------------------------------|
D|----------7-7--------------10-10-7------|    D|----------------------7-7-8-8-10-10-------5--5--7--7--10--10---|
A|--5-5-8-5-----8-8---7-10-7---------7----|    A|------5-5-6-6-8-8-8-8---------------7--7-----------------------|
E|----------------------------------------|    E|--6-6----------------------------------------------------------|

Verse Variation: (played right before chorus)
G|-------------------------------------------7---8---10-----------------------------------------------|
D|----------7-7--------------10-9-7-------------------------7-7-8-8-10-10-------5--5--7--7--10--10----|
A|--5-5-8-5-----8-8---7-10-7---------7-----5---6---8----8-8---------------7--7------------------------|
E|-------------------------------------6-6------------------------------------------------------------|

Chorus (im pretty sure this parts wrong)
G|------10-10---------------10-10---------------8-8-------------------------------------|
D|----------------10-10---------------10-10-------------8-8-------5--5--7--7--10--10----|
A|--8-8-----------------8-8-----------------6-6-------------7--7------------------------|
E|------------8-8-----------------8-8---------------6-6---------------------------------|

After 1st Chorus Riff/Bridge
G|----------------------------------|x2  G|-------------------------------------------------------|
D|---------5--6--7------------------|    D|--8-8--8-8--8--------------------5--5--7--7--10--10----|
A|---5-8-5--------------------------|    A|---------------8-8--8-8--8-7--7------------------------|
E|------------------5-8-5--8---5----|    E|-------------------------------------------------------|

2nd Verse (played once only, then back to the 1st verse riff)
G|-----------------------------|x2  G|---------------------------------------------------------------|
D|--------7--------------10----|    D|----------------------7-7-8-8-10-10-------5--5--7--7--10-10----|
A|--5--8-----8--------7--------|    A|------5---6---8---8-8---------------7--7-----------------------|
E|--------------5--8-----------|    E|--6------------------------------------------------------------|

After Last Chorus
G|------------------------------|x4
D|--------5--5--7--7--10--10----|
A|--7--7------------------------|
E|------------------------------|


albums
tabs

 

1