Search tabs:
Browse artists: 0-9 | A | B | C | D | E | F | G | H | I | J | K | L | M | N | O | P | Q | R | S | T | U | V | W | X | Y | Z
/ Pink Floyd / A Momentary Lapse Of Reason (1987) / The Dogs Of War bass tab

Dogs of war
tabbed by musicianinaction92
please rate this

no bass for first few minutes of the song
		x4
g|--------------------35---|-------------------68---|
d|-------------------5--53-|------------------8--86-|
a|3-33-33-33-33-33-3------6|6-66-66-66-66-66-6-----9|
e|-------------------------|------------------------|

g|-------------------------|--------------------35---|
d|-------------------------|-------------------5--53-|
a|6-66-66-66-6-666666555444|3-33-33-33-33-33-3------6|
e|-------------------------|-------------------------|

g|-------------------------|------------------------|
d|-------------------------|----------46------------|
a|-------------------15"-15|---------6---------68986|
e|8-88-88-88-88-88-8/--8/--|4-44-44-4---4-44-44-----|
						   x3
g|-----------------------|---------------|--------------0|
d|3-33-33-33-35-5-5533---|---------------|-----------013-|
a|--------------------665|3-3-3-3-3-3-3-1|3-3-3-3-3-3----|
e|-----------------------|---------------|---------------|
	   x4
g|---------------|--------------------------------|
d|---------------|------------------------------13|
a|3-3-3-3-3-3-3-1|-------------2---------------3--|
e|---------------|4-4-4-4-4-4-4-2-4-4-4-4-4-4-4---|

g|------------------------------------------|
d|-3-3-3-3-3-3-3-5555-3h5555-3h5--3--1--0---|
a|-----------------------------------------3|
e|------------------------------------------|
Break for about 15 secs
			
g|--------------------35---|--------------------35-5|
d|-------------------5--53-|-------------------5----|
a|3-33-33-33-33-33-3------6|3-33-33-33-33-33-3------|
e|-------------------------|------------------------|
			x2
g|--------------------35---|-------------------68---|
d|-------------------5--53-|------------------8--86-|
a|3-33-33-33-33-33-3------6|6-66-66-66-66-66-6-----9|
e|-------------------------|------------------------|





							x2	
g|-------------------------|--------------------35---|
d|-------------------------|-------------------5--53-|
a|6-66-66-66-6-666666555444|3-33-33-33-33-33-3------6|
e|-------------------------|-------------------------|

g|------------------------|-----------------------|
d|----------46------------|3-33-33-33-35-5-5-3----|
a|---------6---------68986|--------------------6-5|
e|4-44-44-4---4-44-44-----|-----------------------|

g|--------------------35---|--------------------35-5|
d|-------------------5--53-|-------------------5----|
a|3-33-33-33-33-33-3------6|3-33-33-33-33-33-3------|
e|-------------------------|------------------------|

g|--------------------35---|--------------------35-5|
d|-------------------5--53-|-------------------5----|
a|3-33-33-33-33-33-3------6|3-33-33-33-33-33-3------|
e|-------------------------|------------------------|

g|----|
d|----|
a|3---|
e|----|

Great song.
This song gets very tricky.
I'm not sure if I got all of the little bridges, but wat I wrote still works


Pink Floyd albums
1994 The Division Bell
1987 A Momentary Lapse Of Reason
1983 The Final Cut
1979 The Wall
1977 Animals
1975 Wish You Were Here
1973 Dark Side Of The Moon
1971 Relics
1969 Atom Heart Mother
1968 A Saucerful Of Secrets
1967 The Piper At The Gates Of Dawn
A Momentary Lapse Of Reason tabs
01Signs Of Life tabbass tab
02Learning To Fly tabbass tab
03The Dogs Of War tabbass tab
04One Slip tabbass tab
05On The Turning Away tabbass tab
06Yet Another Movie tabbass tab
08A New Machine (Part 1) tabbass tab
09Terminal Frost tabbass tab
10A New Machine (Part 2) tabbass tab
11Sorrow tabbass tab

 

1