Search tabs:
Browse artists: 0-9 | A | B | C | D | E | F | G | H | I | J | K | L | M | N | O | P | Q | R | S | T | U | V | W | X | Y | Z
/ Pink Floyd / Relics (1971) / See Emily Play bass tab

Song:See Emily Play
Author:Pink Floyd    13.56 22/04/05

Today in my lunch break i didn't know what to do so I thought to tab
this song out.....It's pretty easy with some nice bass lines....

Intro:

G-------------------------------------------------------------------
D----7---7---7---7--------------------------------------------------
A--0---0---0---0-----5/3--------5/3--------5/3--------5/3-----------
E------------------------5-5-5------5-5-5------5-5-5------5-5-5-----

Verse: Emily tries but misunderstand.....

G---------------------------------------------12-9---------9-7--------
D----------------------5/7-5-----------------------9-----------9------
A--------------------5-------7-7-7-7----7--7---------10--0-------10---
E--5/3--3-3-3-3-3-3-------------------0-------------------------------

G---------------            G-----------
D--------------- transition:D--------------
A---------------            A-----2--5--------
E--3-3-3-3-3----            E--3-----------------

Chorus:

G-----16-13----16-13---------14-11----14-11---------16-13----16-13-------
D--14-------14-------14---12-------12-------12---14-------14-------14----
A------------------------------------------------------------------------
E------------------------------------------------------------------------

G-----14-11----14-11---------16-13----16-13----------------------------------
D--12-------12-------12---14-------14-------14-------------------------7-----
A------------------------------------------------5-5-5-5-5-5-5-5-----7-------
E------------------------------------------------------------------5-----5---

G---------
D------------
A---------------
E--3-3-3-3-3-------

Then play riff and chorus...
During the solo plat an A:

G---------------------------
D------------------------------
A---------------------------------
E--5-5-5-5-5-5-5-5-5-5-5-5-5-5-5-5---

Then play the intro--the verse--the chorus--then end on a D:

G----7---7---7---
D---------------- Fades out..........
A--5---5---5-----
E----------------

That's all men....i think it's right,just listen to the song...;-)
-Shimmy-


Pink Floyd albums
1994 The Division Bell
1987 A Momentary Lapse Of Reason
1983 The Final Cut
1979 The Wall
1977 Animals
1975 Wish You Were Here
1973 Dark Side Of The Moon
1971 Relics
1969 Atom Heart Mother
1968 A Saucerful Of Secrets
1967 The Piper At The Gates Of Dawn
Relics tabs
01Arnold Layne tabbass tab
02Interstellar Overdrive tabbass tab
03See Emily Play tabbass tab
04Remember A Day tabbass tab
05Paintbox tabbass tab
06Julia Dream tabbass tab
07Careful With That Axe, Eugene tabbass tab
08Cirrus Minor tabbass tab
09The Nile Song tabbass tab
10Biding My Time tabbass tab
11Bike tabbass tab

 

1