Search tabs:
Browse artists: 0-9 | A | B | C | D | E | F | G | H | I | J | K | L | M | N | O | P | Q | R | S | T | U | V | W | X | Y | Z
/ / / bass tab

Band: Pink Floyd
Album: Piper At The Gates Of Dawn
Song: Flaming
Tuning: E,A,D,G
AIM: itallbottheweed6
E-mail: agmnj5lls@punkmusic.com
Tab by Max

Amost all the even Riff's are hard to get the timing. Just practice and listen to the song.


Riff 1
|-------------------------------------------------|
|-------------------------------------------------|
|--7-7-7-7-7-7-7-7-7-7-7-7-7-7-7-7-7-7-7-7-7-7-7--|
|-------------------------------------------------|

Riff 2
|----------------------------------------|
|-----------7------7------7--------------|
|--7----5----7-------7---------10--8--7--|
|----------------------------------------|

Riff 3
|-------------------------------------------------|
|-------------------------------------------------|
|--7-7-7-7-7-7-7-7-7-7-7-7-7-7-7-7-7-7-7-7-7-7-7--|
|-------------------------------------------------|

Riff 4
|----------------------------------------|------|
|-----------7------7------7--------------|------|
|--7----5----7-------7---------10--8--7--|-15/5-|
|----------------------------------------|------|

Riff 5
|-------------------------------------------------|
|-------------------------------------------------|
|--7-7-7-7-7-7-7-7-7-7-7-7-7-7-7-7-7-7-7-7-7-7-7--|
|-------------------------------------------------|

Riff 6
|----------------------------------------|------|
|-----------7------7------7--------------|------|
|--7----5----7-------7---------10--8--7--|-15/5-|
|----------------------------------------|------|

Riff 7
|-------------------------------------------------|
|-------------------------------------------------|
|--7-7-7-7-7-7-7-7-7-7-7-7-7-7-7-7-7-7-7-7-7-7-7--|
|-------------------------------------------------|


Riff 8
|----------------------------------------|
|-----------7------7------7--------------|
|--7----5----7-------7---------10--8--7--|
|----------------------------------------|

Riff 9
|----13-16-13--13---|
|--14--------14--12-|x3
|-------------------|
|-------------------|

Riff 10
|----13-16-13--13---|------|
|--14--------14--12-|------|
|-------------------|-15/5-|
|-------------------|------|

Riff 11
|-------------------------------------------------|
|-------------------------------------------------|
|--7-7-7-7-7-7-7-7-7-7-7-7-7-7-7-7-7-7-7-7-7-7-7--|
|-------------------------------------------------|

Riff 12
|----------------------------------------|
|-----------7------7------7--------------|
|--7----5----7-------7---------10--8--7--|
|----------------------------------------|

Riff 13
|--------------------------------|
|--------------------------------|
|--7-7-7-7-7--8-8-8-8-8--7-8-12--|
|--------------------------------|

This is a cool song. enjoy it.


albums
tabs

 

1