Search tabs:
Browse artists: 0-9 | A | B | C | D | E | F | G | H | I | J | K | L | M | N | O | P | Q | R | S | T | U | V | W | X | Y | Z
/ / / bass tab

Band: Pink Floyd
Album: Piper At The Gates Of Dawn
Song: Lucifer Sam
Tuning: E,A,D,G
Tab By Max
AIM: itallbottheweed6
e-mail: agmnj5lls@punkmusic.com


|---------------|
|------9-8-7-6--|x4
|--7-8----------|
|---------------|

|--------9-8-7-6-|
|--7-8-9---------|
|----------------|
|----------------|

|------9-8-7-8-7-6-|
|--7-8-------------|x2
|------------------|
|------------------|

|---------------|
|------9-8-7-6--|x2
|--7-8----------|
|---------------|

|------------------------------------------|
|------------------------------------------|
|---7-7-7-7-7-7-7-7-7-9-9-9-9-9-9-9-9-9-9--|
|------------------------------------------|

|------------------------------------------------------|
|------------------------------14-14-14-12-14-12-------|
|--9-9-10-10-11-11-12-12-14-14-------------------14-12-|
|------------------------------------------------------|

|----------------------|
|-2  slide down to  15-|
|----------------------|
|----------------------|

|---------------|
|------9-8-7-6--|x4
|--7-8----------|
|---------------|

|--------9-8-7-6-|
|--7-8-9---------|
|----------------|
|----------------|

|------9-8-7-8-7-6-|
|--7-8-------------|x2
|------------------|
|------------------|

|---------------|
|------9-8-7-6--|x2
|--7-8----------|
|---------------|

|------------------------------------------|
|------------------------------------------|
|---7-7-7-7-7-7-7-7-7-9-9-9-9-9-9-9-9-9-9--|
|------------------------------------------|

|------------------------------------------------------|
|------------------------------14-14-14-12-14-12-------|
|--9-9-10-10-11-11-12-12-14-14-------------------14-12-|
|------------------------------------------------------|

|----------------------|
|-2  slide down to  15-|
|----------------------|
|----------------------|

Play this during solo
|-----------------------------|
|-----------------------------|
|-9-9-9-9-9-9-9-9-9-9-9-9-9-9-|
|-----------------------------|

|------------------------------------------|
|------------------------------------------|
|---7-7-7-7-7-7-7-7-7-9-9-9-9-9-9-9-9-9-9--|
|------------------------------------------|

|------------------------------------------------------|
|------------------------------14-14-14-12-14-12-------|
|--9-9-10-10-11-11-12-12-14-14-------------------14-12-|
|------------------------------------------------------|

|----------------------|
|-2  slide down to  15-|
|----------------------|
|----------------------|

|---------------|
|------9-8-7-6--|x4
|--7-8----------|
|---------------|

|--------9-8-7-6-|
|--7-8-9---------|
|----------------|
|----------------|

|------9-8-7-8-7-6-|
|--7-8-------------|x2
|------------------|
|------------------|

|---------------|
|------9-8-7-6--|x2
|--7-8----------|
|---------------|

|------------------------------------------|
|------------------------------------------|
|---7-7-7-7-7-7-7-7-7-9-9-9-9-9-9-9-9-9-9--|
|------------------------------------------|

|------------------------------------------------------|
|------------------------------14-14-14-12-14-12-------|
|--9-9-10-10-11-11-12-12-14-14-------------------14-12-|
|------------------------------------------------------|

|----------------------|
|-2  slide down to  15-|
|----------------------|
|----------------------|

End


albums
tabs

 

1