Search tabs:
Browse artists: 0-9 | A | B | C | D | E | F | G | H | I | J | K | L | M | N | O | P | Q | R | S | T | U | V | W | X | Y | Z
/ / / bass tab

Song:Matilda mother
Author:Pink Floyd

Intro:

G--16-------16--------------------
D--------------------0-------4----
A---------------------------------
E---------------------------------

Riff 1a

G--16---14---12---11-----16---14---12---11-----16---14---12---11---
D------------------------------------------------------------------
A------------------------------------------------------------------
E------------------------------------------------------------------

Riff 1b

G----11----------9----------7-----------6----
D--9----13-9---7---11-7---5---9-5---4-8---8--
A--------------------------------------------
E--------------------------------------------

Riff 2

G----7---------6-------9-6---9-6---9-6-----7---------6----------------------
D--5---9-5---4---8-4-------7-----7-------5---9-5---4---8-4---14-14-14-14----
A---------------------------------------------------------------------------
E---------------------------------------------------------------------------

Riff 3

G-------------------------------------------------------
D----6-7-9-7-6---------6-7-9-7-6------------------------
A--9-----------9-7---9-----------9-7/-/14-14-14-14-14---
E-------------------------------------------------------

G----------------------11---10---9---8------------------
D----6-7-9-7-6------------------------------------------
A--9-----------9-7---9----8----7---6---/14----7-9-10-----
E-------------------------------------------------------

Play riff 1 & 2

Tell me more...
G--------------
D--------------
A--4---2-------
E----------4---

During solo:

G--------------
D----4---------
A-----------4--
E--2----0h2----

Then play just a part of riff 3 then play riff 1b x4 ,riff 2,the tell me more
part....followed by the

Outro:

G--------7h9-7-------
D----6-9-------9----- fade out....
A--7-----------------
E--------------------

That\'s all...i think it\'s right and clear enough,but i\'m sure you\'ll have
a good time...;-)...shine on shine on......
-Shimmy-


albums
tabs

 

1