Search tabs:
Browse artists: 0-9 | A | B | C | D | E | F | G | H | I | J | K | L | M | N | O | P | Q | R | S | T | U | V | W | X | Y | Z
/ / / bass tab

Song - The Gnome
Artist - Pink Floyd
Album - The Piper At The Gates Of Dawn

-Standard Tuning - EADG -
Listen for correct rythym

Verse
|----------------|----------------|----------------|----------------|
|----------------|----------------|----------------|----------------|
|5---5-----------|5---5-----------|3---------------|3---------------|
|--------5---5---|----------------|--------5-------|--------5-------|

Bridge
|----------------|----------------|----------------|----------------|
|5---------------|3---------------|3---------------|----------------|
|--------5-------|--------0-------|--------0-----0-|5---------------|
|----------------|----------------|----------------|----------------|

Chorus
|----------------|----------------|----------------|----------------|
|----------------|----3---3-------|7-------7-------|5---------------|
|--------3-------|----------------|----------------|-------5--------|
|3---------------|----------------|----------------|----------------|

|----------------|----------------|----------------|----------------|
|5---------------|0---------------|----------------|----------------|
|----------------|----------------|----------------|----------------|
|----------------|----------------|----------------|----------------|


albums
tabs

 

1