Search tabs:
Browse artists: 0-9 | A | B | C | D | E | F | G | H | I | J | K | L | M | N | O | P | Q | R | S | T | U | V | W | X | Y | Z
/ Pink Floyd / The Wall (1979) / In The Flesh bass tab

IN THE FLESH? (Bassline)
                            As recorded by Pink Floyd
                      (From the 1979 Double Album THE WALL)

Words and Music by Roger Waters
Transcribed by EADG

Gtr I (E A D G) - 'Electric Bass'

 Intro
  E=151
 12/8
  Gtr I
  H.      H.        Q.   Q  E Q.   Q  E
|-----------------|---------------------|
|-----------------|---------------------|
|-----------------|------0--2-3----3----|
|-0-------2-------|-3-------------------|


   Q.   Q.   Q  E Q  E   Q  E Q  E Q  E Q  E
|----------------------|---------------------|
|----------------------|---------------------|
|-10\---5----7-------5-|-7-------5-7---------|
|---------------0-0----|----0-0-------0-0--0-|


  Q  E Q.   Q  E Q.     Q  E Q.   Q  E Q.
|------7---------7----|------7---------7----|
|-0--0----------------|---------------------|
|-----------7--7------|-8--8------7--7------|
|---------------------|---------------------|


  Q  E Q.   Q  E Q.     Q  E Q.    Q.    Q.
|------7---------7----|------7----------------||
|-0--0----------------|-----------------------||
|-----------7--7------|-8--8------10----10\---||
|---------------------|-----------------------||


 Theme
  $
  Q  E Q.   Q.   Q  E   Q  E Q.   Q.   Q.
|---------------------|---------------------|
|---------------------|------0--------------|
|-0--0-4----2----0----|-----------4----2----|
|-------------------4-|-2--2----------------|


  Q  E Q.   Q.   Q  E   Q  E Q.   Q  E E E E
|---------------------|----------------------|
|---------------------|------0---------------|
|-0--0-4----2----0----|-----------4--2-2h3p2-|
|-------------------4-|-2--2-----------------|


  Q  E Q.   Q.   Q  E   Q  E Q.   Q.   Q  E
|---------------------|---------------------|
|---------------------|------0--------------|
|-0--0-4----2----0--1-|-2--2------4----2--3-|
|---------------------|---------------------|


                To Coda
  Q  E Q.   Q  E E E E   Q.   E E E Q.   E E E
|----------------------|-----------------------|
|------2----0----------|-----------------------|
|-4--4---------2-2h3p2-|-----------------------|
|----------------------|-0----0-0-0-0----0-2-3-|


 Verse
                                        D.S. al Coda
  W.              Wx6              W        E E E E
|---------------|----------------|--------------------||
|---------------|----------------|--------------------||
|-0-------------|----------------|--------------------||
|---------------|----------------|------------0-2-3---||


                         Ending
  H.=H                  Free Time E=151
  &
  Q.   E E E Q.   E E E   H      Q   H      Q     Q.   E E E Q.   E Q
|-----------------------:-----------------------|----------------------*|
|-----------------------:-----------------/14\--|----------------------*|
|-----------------------:-0----/12\--0----------|-0----0-0-0-0----0----*|
|-0----0-0-0-0----0-2-3-:-----------------------|----------------------*|


Duration Legend
---------------
W - whole; H - half; Q - quarter; E - 8th; S - 16th; T - 32nd; X - 64th; a - acciaccatura
+ - note tied to previous; . - note dotted; .. - note double dotted
Uncapitalized letters represent notes that are staccato (1/2 duration)
Irregular groupings are notated above the duration line
Duration letters will always appear directly above the note/fret number it represents the
duration for.  Duration letters with no fret number below them represent rests.  Multi-
bar rests are notated in the form Wxn, where n is the number of bars to rest for.  Low
melody durations appear below the staff

Tablature Legend
----------------
 h   - hammer-on
 p   - pull-off
 b   - bend
 pb  - pre-bend
 r   - bend release (if no number after the r, then release immediately)
 /\  - slide into or out of (from/to "nowhere")
 s   - legato slide
 S   - shift slide
  - natural harmonic
[n]  - artificial harmonic
n(n) - tapped harmonic
 ~   - vibrato
 tr  - trill
 T   - tap
 TP  - trem. picking
 PM  - palm muting
\n/  - tremolo bar dip; n = amount to dip
 \n  - tremolo bar down
 n/  - tremolo bar up
/n\  - tremolo bar inverted dip
 =   - hold bend; also acts as connecting device for hammers/pulls
 <>  - volume swell (louder/softer)
 x   - on rhythm slash represents muted slash
 o   - on rhythm slash represents single note slash

Misc Legend
-----------
 |  - bar
||  - double bar
||o - repeat start
o|| - repeat end
*|  - double bar (ending)
 :  - bar (freetime)
 $  - Segno
 &  - Coda
Tempo markers -  = BPM(8/16=s8/s16), where s8 = swing 8ths, s16 = swing 16ths


***************************************************************************************
* Generated using Power Tab Editor by Brad Larsen - http://powertab.guitarnetwork.org *
***************************************************************************************


Pink Floyd albums
1994 The Division Bell
1987 A Momentary Lapse Of Reason
1983 The Final Cut
1979 The Wall
1977 Animals
1975 Wish You Were Here
1973 Dark Side Of The Moon
1971 Relics
1969 Atom Heart Mother
1968 A Saucerful Of Secrets
1967 The Piper At The Gates Of Dawn
The Wall tabs
01In The Flesh? tabbass tab
02The Thin Ice tabbass tab
03Another Brick In The Wall tabbass tab
04The Happiest Days Of Our Lives tabbass tab
05Another Brick In The Wall (Part 2) tabbass tab
06Mother tabbass tab
07Goodbye Blue Sky tabbass tab
08Empty Spaces tabbass tab
09Young Lust tabbass tab
10One Of My Turns tabbass tab
11Don't Leave Me Now tabbass tab
12Another Brick In The Wall (Part 3) tabbass tab
13Goodbye Cruel World tabbass tab
14Hey You tabbass tab
15Is There Anybody Out There tabbass tab
16Nobody Home tabbass tab
17Vera tabbass tab
18Bring The Boys Back Home tabbass tab
19Comfortably Numb tabbass tab
20Show Must Go On tabbass tab
21In The Flesh tabbass tab
22Run Like Hell tabbass tab
23Waiting For The Worms tabbass tab
24Trial tabbass tab
25Outside The Wall tabbass tab

 

1