Search tabs:
Browse artists: 0-9 | A | B | C | D | E | F | G | H | I | J | K | L | M | N | O | P | Q | R | S | T | U | V | W | X | Y | Z
/ The Police / Outlandos d'Amour (1978) / Truth Hits Everybody bass tab

Song: Truth Hits Everybody
Artist: The Police
Album: Outlandos D'Amour

Intro
G|---------------|-----------------||---------------|-----------|
D|---------------|-----------------||---------------|-----------|
A|-4-4-4-4-4-4---|--------7--7-7-7-||-4-4-4-4-4-4---|--------5--|
E|---------------|-5--5-5----------||---------------|-5--5-5----|
                                     ^lead into verse
Verse
G|-----------------|-----------------|
D|-----------------|-----------------|
A|-4-4-4-4-4-4-4-4-|-----------------|
E|-----------------|-5-5-5-5-5-5-5-5-|

Prechorus
G|------------------|------------------|
D|------------------|------------------|
A|------------------|------------------|
E|-5--0-5---5--0-5--|-5--0-5---5--0-5--|

Chorus
G|-----------------|
D|-----------------|
A|-7-7-7-9-9-9-9-9-|
E|-----------------|

Bridge
G|-----------------|-----------------|-----------------|-----------------|
D|-----------------|-----------------|-----------------|-----------------|
A|-5-5-5-5-5-5-5-5-|-7-7-7-7-7-7-7-7-|-5-5-5-5-5-5-5-5-|-7-7-7-7-7-7-7-7-|
E|-----------------|-----------------|-----------------|-----------------|

G|-----------------|-----------------|----------------|-----------------|
D|-----------------|-----------------|----------------|-----------------|
A|-9-9-9-9-9-9h11--|-----------------|----------------|-----------------|
E|-----------------|-0-0-0-0-0-0-0-0-|-4-4-4-4-4-4-4--|-0-0-0-0-0-0-0-0-|

G|-----------------|-----------------|
D|-----------------|-----------------|
A|-----------------|---------------7-|
E|-2-2-2-2-2-2h4---|-0-0-0-0-0-0-0-0-|

That should be it. Doing from memory, but sure it's accurate. Not too
hard to put together.


The Police albums
1983 Synchronicity
1981 Ghost in the Machine
1980 Zenyatta Mondatta
1979 Reggatta de Blanc
1978 Outlandos d'Amour
Outlandos d'Amour tabs
01Next to You tabbass tab
02So Lonely tabbass tab
03Roxanne tabbass tab
06Can't Stand Losing You tabbass tab
07Truth Hits Everybody tabbass tab
09Be My Girl - Sally tabbass tab

 

1