Search tabs:
Browse artists: 0-9 | A | B | C | D | E | F | G | H | I | J | K | L | M | N | O | P | Q | R | S | T | U | V | W | X | Y | Z
/ The Police / Zenyatta Mondatta (1980) / Shadows in the Rain bass tab

Artist: The Police
Song: Shadows in the Rain
Album: Zendatta Mondatta (1980)
Tuning: E-A-D-G

 - It sounds like this is played on an upright

Whole Song:
G|---------------------------------------------------------|
D|---------------------------------------------------------|
A|---------------------------------------------------------|
E|--5-0-3--5--3---5-0-3--5--3---5-0-3--5--3---5-0-3--5--3--| (x2)

G|---------------------------------------------------------|
D|---------------------------------------------------------|
A|--5-0-3--5--3---5-0-3--5--3---8-7-5--8--7---8-7-5--8--7--|
E|---------------------------------------------------------|

G|---------------------7--9------|
D|------7--9---------9-----------|
A|----9------------7-------------|
E|--7---------7\\\\-------------0\\\\--|


G|-----------------------------|
D|-----------------------------|
A|-----------------------------|
E|--5-0-3--5--3---5-0-3--5--3--|

G|---------------------------------------------------------|
D|---------------------------------------------------------|
A|--5-0-3--5--3---5-0-3--5--3---8-7-5--8--7---8-7-5--8--7--|
E|---------------------------------------------------------|

G|---------------------7--9------|
D|------7--9---------9-----------|
A|----9------------7---------7\\\\--|
E|--7---------7------------------|


G|---------------------------------------------------------|
D|---------------------------------------------------------|
A|---------------------------------------------------------|
E|--5-0-3--5--3---5-0-3--5--3---5-0-3--5--3---5-0-3--5--3--| (x2)

G|---------------------------------------------------------|
D|---------------------------------------------------------|
A|--5-0-3--5--3---5-0-3--5--3---8-7-5--8--7---8-7-5--8--7--|
E|---------------------------------------------------------|

G|---------------------7--9-----|
D|------7--9---------9----------|
A|----9------------7---------7--|
E|--7---------7-----------------|



G|-------------------------------------------|
D|-------------------------------------------|
A|-------------------------------------------|
E|--5-0-3--5--3---5-0-3--5--3---5-0-3--5--3--| (x2)

G|---------------------------------------------------------|
D|---------------------------------------------------------|
A|--5-0-3--5--3---5-0-3--5--3---8-7-5--8--7---8-7-5--8--7--|
E|---------------------------------------------------------|

G|---------------------7--9------|
D|------7--9---------9-----------|
A|----9------------7---------7\\\\--|
E|--7---------7------------------|



G|---------------------------------------------------------|
D|---------------------------------------------------------|
A|---------------------------------------------------------|
E|--5-0-3--5--3---5-0-3--5--3---5-0-3--5--3---5-0-3--5--3--| (x2)

G|---------------------------------------------------------|
D|---------------------------------------------------------|
A|--5-0-3--5--3---5-0-3--5--3---8-7-5--8--7---8-7-5--8--7--|
E|---------------------------------------------------------|

G|---------------------7--9------|
D|------7--9---------9-----------|
A|----9------------7---------7\\\\--|
E|--7---------7\\\\-----------------|


G|---------------------------------------------------------|
D|---------------------------------------------------------|
A|--------------------3------------------------------------|
E|--5-0-3--5--3---5-0----5--3---5-0-3--5--3---5-0-3--5--3--|

G|---------------------------------------------------------|
D|---------------------------------------------------------|
A|---------------------------------------------------------|
E|--5-0-3--5--3---5-0-3--5--3---5-0-3--5--3---5-0-3--5--3--| (x3)

G|---------------------------------------------------------|
D|---------------------------------------------------------|
A|------------------------------------------------3--------|
E|--5-0-3--5--3---5-0-3--5--3---5-0-3--5--3---5-0----5--3--|

G|---------------------------------------------------------|
D|---------------------------------------------------------|
A|---------------------------------------------------------|
E|--5-0-3--5--3---5-0-3--5--3---5-0-3--5--3---5-0-3--5--3--| (x4)

G|-----------------------------------------------------------------------|
D|-----------------------------------------------------------------------|
A|-----------------------------------------------------------------------|
E|--5-0-3--5--3---5-0-3--5--3---5-0-3--5--3----------5--3----------5--3--|


The Police albums
1983 Synchronicity
1981 Ghost in the Machine
1980 Zenyatta Mondatta
1979 Reggatta de Blanc
1978 Outlandos d'Amour
Zenyatta Mondatta tabs
01Don't Stand So Close to Me tabbass tab
02Driven to Tears tabbass tab
04Canary in a Coalmine tabbass tab
05Voices Inside My Head tabbass tab
07De Do Do Do, De da da Da tabbass tab
08Behind My Camel tabbass tab
09Man in a Suitcase tabbass tab
10Shadows in the Rain tabbass tab
11The Other Way of Stopping tabbass tab

 

1